Song name
# A B C D E F G H I J K L M N O P Q R S T U V W X Y Z

Gregory Alan Isakov - In Tall Buildings tab

e|------------------------------------------------------------|
B|--0-----------------3---------0-------------0----0----0-----|
G|------0-----------2--------------0--------------------------|
D|----0-----0-----0------0-------2----2--------------0--------|
A|----------------------------------------------0h2-----------|
E|-3------3------2-----2------0------0------3-----------------|

e|--------------------------------------------------------|
B|---1-------------3--------------3-----------3-----------|
G|-------0-------------0-------------4-----------0--------|
D|-----2-----2-------2-----2-------5----5------2----2-----|
A|-3-------3-----5-------5------5-----5-----5-----5-------|
E|--------------------------------------------------------|
Tap to rate this tab
# A B C D E F G H I J K L M N O P Q R S T U V W X Y Z