Song name
# A B C D E F G H I J K L M N O P Q R S T U V W X Y Z

Gregory Alan Isakov - Master And A Hound tab

Master & A Hound
Gregory Alan Isakov


Notes:

*Capo 2

*Picking pattern in the Intro continues throughout the song

*Release D string on all transitions from Em to C/G (see how it happens in the Intro)

*Numbers in parentheses signify chord duration in bass note counts (i.e., for “G (8),” 
pick the G chord for 8 counts of the lowest note, like in the beginning of the Intro)

*A plus sign (+) in the parenthesis means continue for the given number of counts (i.e., 
for “Em (8) Em (+8),” pick the Em chord for a total of 16 continuous counts)

Chords:

     G      Em     C/G    D/F#
E|---0------0------0------2---|
B|---0------0------1------3---|
G|---0------0------0------2---|
D|---0------2------2------0---|
A|---2------2------3------0---|
E|---3------0------3------2---|

Intro:

     G (8)                           Em (8)
E|--------------------------------------------------------------------|
B|------0---0---0---0---0---0---0---0---0---0---0---0---0---0---0---0-|
G|-----0---0---0---0---0---0---0---0---0---0---0---0---0---0---0---0--|
D|-------0---0-----------0-------0-------2---2-----------2-------0----|
A|--------------------------------------------------------------------|
E|---3-----------3---3-------3-------0-----------0---0-------0--------|

     C/G (16)
E|--------------------------------------------------------------------|
B|------1---1---1---1---1---1---1---1---1---1---1---1---1---1---1---0-|
G|-----0---0---0---0---0---0---0---0---0---0---0---0---0---0---0---0--|
D|-------2---2-----------2-------2-------2---2-----------2-------2----|
A|--------------------------------------------------------------------|
E|---3-----------3---3-------3-------3-----------3---3-------3--------|

     G           C/G                 G (8)
E|--------------------------------------------------------------------|
B|------0---0---0---1---1---1---1---0---0---0---0---0---0---0---0---0-|
G|-----0---0---0---0---0---0---0---0---0---0---0---0---0---0---0---0--|
D|-------0---0-------2---2-------2-------0---0-----------0-------0----|
A|--------------------------------------------------------------------|
E|---3-----------3-----------3-------3-----------3---3-------3--------|



C/G (8)                          G (8)  Em (8)
Where were you when I was still kind

Em (+8)
Just a water treader
C/G (8)         G (8)  Em (8)
Waiting on the line

Em (+8)
Just a dry gin drinker
C/G (8)       G (8)  Em (8)
Master and a hound

Em (+8)
Turned a circus swinger
C/G (8)            G (8)
Look, he's coming down
D/F# (16)
Down

        C/G (8)
Can you shake it up
     G (8)
Just once for me
     Em (8)               C/G (16)
Your little globe just so we can see
                  G (8)      D/F# (16)
The snow blowing round your hands

        C/G (8)
And the wing-nut turned
              G (8)
The song that we both know
        Em (8)           C/G (16)
Sent us flying round the carnival
                       G (8)          D/F# (16)
You can throw all your lucky coins on me

C/G (8)  G (8)  D/F# (8)  Em (8)  C/G (8)  G (8)  D/F# (8)  C/G (8)
On me
Tap to rate this tab
 
# A B C D E F G H I J K L M N O P Q R S T U V W X Y Z