Song name
# A B C D E F G H I J K L M N O P Q R S T U V W X Y Z

Gregory Alan Isakov - In Tall Buildings tab

-------------------------------------------------------------------------------
                             IN TALL BUILDINGS - Gregory Alan Isakov
-------------------------------------------------------------------------------
Tabbed by: minjimon
E-mail: le.prince.lutin@gmail.com

Tuning:standard

Cover of John Hartford's song.

This is not a perfect transcription, but copy the dotted rhythm he uses here 
(http://www.youtube.com/watch?v=ymfcEcoIcXE) and it should feel very close.

e|-------------------------------------------------------------------------------|
B|-----0-----------0-------------3--------------0----------0-------0-----------0-|
G|-----------0--------------2----------2-------------0-------------------0-------|
D|-------0-------------------0-------------------2-------------------------0-----|
A|-------------------------------------------------------------------0h2---------|
E|-3----------3--------2----------2--------0----------0--------3-----------------|

e|-------------------------------------------------------------------------------|
B|-----1----------1---------3----------3--------0---------0---------3----------3-|
G|----------0--------------------0-------------------0-------------------0-------|
D|------2--------------------4-------------------0-------------------4-----------|
A|-3---------3---------5----------5----------------------------5----------5------|
E|-------------------------------------------3---------3-------------------------|

(this last chord repeats once or 4x, depending on whether it is the middle or the 
end of a section.)

Someday my baby, when I am a man,
and others have taught me
the best that they can
they'll sell me a suit 
they'll cut off my hair
and send me to work in tall buildings

So it's goodbye to the sunshine
goodbye to the dew
goodbye to the flowers
and goodbye to you
I'm off to the subway
I must not be late
I'm going to work in tall buildings

When I'm retired
My life is my own
I made all the payments
it's time to go home
and wonder what happened 
betwixt and between
when I went to work in tall buildings

So it's goodbye to the sunshine
goodbye to the dew
goodbye to the flowers
and goodbye to you
I'm off to the subway
I must not be late
I'm going to work in tall buildings

So it's goodbye to the sunshine
goodbye to the dew
goodbye to the flowers
and goodbye to you
I'm off to the subway
I must not be late
I'm going to work in tall buildings
Tap to rate this tab
# A B C D E F G H I J K L M N O P Q R S T U V W X Y Z