Song name
# A B C D E F G H I J K L M N O P Q R S T U V W X Y Z

Gregory And The Hawk - In Fact tab

IN FACT (revised!)

CAPO on 3RD

VERSE
e|--------------------------------------------------------------|
B|--------------------------------------------------------------|
G|------------------0-----------------------------2-------------|
D|---------2-----------2--------------2-------------2-----------|
A|-------------3----------3---------------0-------------0-------|
E|------3--------------------------2----------------------------|

--

e|--------------------------------------------------------------|
B|--------------------------------------------------------------|
G|------------------2-----------------------------0-------------|
D|---------2-----------2--------------2-------------2-----------|
A|-------------2----------2---------------2------------2--------|
E|------0--------------------------0----------------------------|



CHORUS
e|--------------------------------------------------------------|
B|--------------------------------------------------------------|
G|------------------0-----------------------------0-------------|
D|---------5-----------5--------------5-------------5-----------|
A|-------------5----------5---------------5------------0--------|
E|------3--------------------------5----------------------------|

--

e|--------------------------------------------------------------|
B|--------------------------------------------------------------|
G|------------------0-----------------------------0-------------|
D|---------2-----------2--------------2-------------2-----------|
A|-------------2----------2---------------3------------3--------|
E|------0--------------------------3----------------------------|


PRE-BRIDGE
e|---------------------------|----------------------------------|
B|---------------------------|----------------------------------|
G|------------------0--------|-[x3 and end with:] --------------|
D|---------2-----------2-----|----------------------------------|
A|-------------3----------3--|----------------------------------|
E|------3--------------------|------------------------3---------|


BRIDGE (down,up -mute- up -change-)
e|------x------x------x------x------|
B|------x------x------x------x------|
G|------0------2------2------0------|
D|------2------0------2------2------|
A|------3------2------2------2------|
E|------3------2------0------0------|

--

e|------x------x------x------x------|
B|------x------x------x------x------|
G|------0------2------2------0------|
D|------2------0------2------2------|
A|------3------2------2------3------|
E|------3------2------0------3------|

--

e|------x------x------x------x------|
B|------x------x------x------x------|
G|------0------2------2------0------|
D|------2------0------2------2------| x2
A|------3------2------2------2------|
E|------3------2------0------0------|

CHORUS
PREBRIDGE (outro)

Enjoy! comment!
Tap to rate this tab
 
# A B C D E F G H I J K L M N O P Q R S T U V W X Y Z