Song name
# A B C D E F G H I J K L M N O P Q R S T U V W X Y Z

Gregory And The Hawk - Memory And Honesty tab

This is a lot simpler than some Gregory and the Hawk songs and is just the simple guitar 
playing underneath the strings. Hope this helps! Standard tuning/no capo :)

 3-0-0-------3-0-0-------|
 ------1-1-1-------1-1-1-|
 ------------------------|
 ------------------------|
 ------------------------|
 ------------------------|

 2-0-----2-0-----|
 ----------------|
 ----4-4-----4-4-|
 ----------------|
 ----------------|
 ----------------|

This repeats for the verse.

And this is the guitar in the chorus:

 7-0-0-------7-0-0-------| x2
 ------7-0-0-------7-0-0-|
 ------------------------|
 ------------------------|
 ------------------------|
 ------------------------|

 ----------------|
 8-7-8-7-8-7-8-5-|
 ----------------|
 ----------------|
 ----------------|
 ----------------|
Tap to rate this tab
 
# A B C D E F G H I J K L M N O P Q R S T U V W X Y Z