Song name
# A B C D E F G H I J K L M N O P Q R S T U V W X Y Z

Gregory And The Hawk - Super Legend tab

Help us improve GuitareTab! Take a short survey!
INTRO & VERSE:
   Am                      Em
|---------------------------------------------------|
|----1-------1---1-------1---0-------0---0-------1--|
|--------2-----------2-----------0-----------2------|
|----2-----2-----2-----2-----2-----2-----2-----2----|
|--0---0-------0---0-------2---2-------2---2--------|
|---------------------------------------------------|
  Am                    D
|---------------------------2-------2---2-------0---|
|---1-------1---1-------3-------3-----------3-------|
|-------2-----------2-------2-----2-----2-----2-----|
|---2-----2-----2-----2---0---0-------0---0---------|
|-0---0-------0---0---------------------------------|
|---------------------------------------------------|


REF:
   C           G           Am
|---------------------------------------------------|
|----1-------1---1-------1---1-------1---1----------|
|--------0-----------0-----------2-----------2------|
|----2-----2-----0-----0-----2-----2-----2-----2----| 4x
|--3---3-------2---2-------0---0-------0---0--------|
|---------------------------------------------------|


____________________________________________________________


Too young to be
Super legend
And no one knows that years ago
You'd sing yourself to bed
I'm a better, better friend

To win your love
It's all I'm not
Two tiers above
The best I've got

All I see in you is new, smooth
And I, I get lost
In the rottenness of it all
Come on I'm a crutch in a pinch
And you're too much
Get a hold of yourself get over yourself
Man

To win your love
It's all I'm not
Two tiers above
The best I've got
The best I've got
Related for Super Legend tab