Song name
# A B C D E F G H I J K L M N O P Q R S T U V W X Y Z

Gregory And The Hawk - August Moon tab

capo 2


INTRO:
|----0---0---0---------------0---0-----------------0---0---0-----0---0---0---0---|
|----0---0---0---------------0---0-----------------0---0---0-----1---1---1---1---|
|----0---0---0---------------0---0-----------------0---0---0-----2---2---2---2---|
|----------------------0-2-------------------0-2---------------------------------|
|--2-------2-------0-2---------2---------0-2---------2-------2-0---0---0---0-----|
|------0-------0-3---------0-------0-0-3---------0-------0-----------------------|


VERSE1:
   August moon...                                         ...until it's out of sight
|----0---0---0---0---3---3---3---3---0---0---0---0---0---0---0---0---|
|----0---0---0---0---3---3---3---3---1---1---1---1---1---1---1---1---|
|----0---0---0---0---0---0---0---0---0---0---0---0---2---2---2---2---|
|--------------------------------------------------------------------|
|--2-------2-------2-------2-------3-------3-------0-------0---------|
|------0-------0-------3-------3-------3-------3-------2-------2-----|

|----0---0---0---------------0---0-----------------0---0---0-----0---0---0---0---|
|----0---0---0---------------0---0-----------------0---0---0-----1---1---1---1---|
|----0---0---0---------------0---0-----------------0---0---0-----2---2---2---2---|
|----------------------0-2-------------------0-2---------------------------------|
|--2-------2-------0-2---------2---------0-2---------2-------2-0---0---0---0-----|
|------0-------0-3---------0-------0-0-3---------0-------0-----------------------|


VERSE2:
     Dawn, and do...
|----0---0---0---0---3---3---3---3---0---0---0---0---0---0---0---0---|
|----0---0---0---0---3---3---3---3---1---1---1---1---1---1---1---1---|
|----0---0---0---0---0---0---0---0---0---0---0---0---2---2---2---2---|
|--------------------------------------------------------------------| 2x
|--2-------2-------2-------2-------3-------3-------0-------0---------|
|------0-------0-------3-------3-------3-------3-------2-------2-----|

|----------------------------------------------------------------------|
|----0-2-3-0-0---0-2-3-0-0---0-2-3-0-0---0-2-3-0-0-----0-----1---------|
|----------0-2-0-------0-2-0-------0-2-0-------0-2-0-------------------|
|--------------0-----------0-----------0-----------0-------0-----0-0---|
|--2-------2-0-2-------2-0-2-------2-0-2-------2-0-2-2---2-----2-2-0---|
|----------------------------------------------------------------3-3---|


VERSE3:
     Black and blissful...
|----0---0---0---0---3---3---3---3---0---0---0---0---0---0---0---0---|
|----0---0---0---0---3---3---3---3---1---1---1---1---1---1---1---1---|
|----0---0---0---0---0---0---0---0---0---0---0---0---2---2---2---2---|
|--2-----------------------------------------------------------------|
|--2-------2-------2-------2-------3-------3-------0-------0---------|
|--0---0-------0-------3-------3-------3-------3-------2-------2-----|
     Fate will rule you...
|----0---0---0---0---0---0---0---0---0---0---0---0---0---0---0---0---|
|----0---0---0---0---1---1---1---1---1---1---1---1---1---1---1---1---|
|----0---0---0---0---0---0---0---0---2---2---2---2---2---2---2---2---|
|--------------------------------------------------------------------|
|--2-------2-------3-------3-------0-------0-------0-------0---------|
|------0-------0-------3-------3-------2-------2-------2-------2-----|
  ...sanity
|----0---0---0---------------0-------|
|----0---0---0---------------0---0---|
|----0---0---0---------------0---0---|
|----------------------0-2-------2---|
|--2-------2-------0-2-----2-----2---|
|------0-------0-3-------------0-----|

________________________________________________________________________________________

August moon, made just for you
A steady ready smile like his
Until it's out of sight

Dawn, and do the true chance that chooses you
Face to face with a new day
So simple it seems, you dare to dream impossibly
Whiskey in its rarity, I'm bound to add now

Black and blissful, tumbling
Awake, asleep, it feeds me
Fate will rule you, the heart it fools you
To lose your sanity
Tap to rate this tab
 
# A B C D E F G H I J K L M N O P Q R S T U V W X Y Z