Song name
# A B C D E F G H I J K L M N O P Q R S T U V W X Y Z

Gregory And The Hawk - Season Poem tab

Gregory and the Hawk: Season Poem
Tuning : DADFBE
Capo on the forth fret: In jere-speak 
this is allocated to there being no 
capo in case of confusion so the 
forth fret is the forth fret or in
this case open, also the 7th fret 
is really the seventh fret on the 
guitar not counting in the capo 
which on most tabs it would be 
the 11th in this case.
I used the tab posted previously
 to help me, and used his/her 
approach in order to show the 
11th fret with a number sign,
 most credit goes to that person


Verse:
  One    by        one     The days fall beside us               Like yellow leaves
e|--------4-------------------4------------------6---------------------------|
B|------------------6-------------------6-----------------8--------9--------6|
F|--7--7h8----7--7h8----7--7h8----7--7h8----7--7-----7--7-----7--7-----7--7--|
D|---------------------------------------------------------------------------|
A|4-8-4-----4-8-4-----4-8-4-----4-8-4-------6--------6--------6--------6-----|
D|----------------------------------------6---6-6--6---6-6--6---6-6--6---6-6-|
              We have               no conscience             Oh, what we're becoming
e|--------4-------------------4---------------------------6------------------|
B|------------------6-------------------6--------8-----------------9--------6|
F|--7--7h8----7--7h8----7--7h8----7--7h8----7--7-----7--7-----7--7-----7--7--|
D|---------------------------------------------------------------------------|
A|4-8-4-----4-8-4-----4-8-4-----4-8-4-------6--------6--------6--------6-----|
D|----------------------------------------6---6-6--6---6-6--6---6-6--6---6-6-|

e|-----------------------------------------------8--------4------------------|
B|--------8---------9---------9---------6---4--4-----4--4-----4--4-6---4--4-6|
F|--8--7h8----8--7h8----8--7h8----8--7h8-------------------------------------|
D|---------------------------------------------------------------------------|
A|--8---------8---------8---------8---------6--------6--------6--------6-----|
D|8---8-----8---8-----6---6-----6---6-----6---6-6--6---6-6--6---6-6--6---6-6-|
  Month   by     month  the rings on our tree trunks           Like old wise eyes
e|--------4-------------------4------------------6---------------------------|
B|------------------6-------------------6-----------------8--------9--------6|
F|--7--7h8----7--7h8----7--7h8----7--7h8----7--7-----7--7-----7--7-----7--7--|
D|---------------------------------------------------------------------------|
A|4-8-4-----4-8-4-----4-8-4-----4-8-4-------6--------6--------6--------6-----|
D|----------------------------------------6---6-6--6---6-6--6---6-6--6---6-6-|

                Grow wider           and winter        Lends them a dead disguise
e|--------4-------------------4------------------6---------------------------|
B|------------------6-------------------6-----------------8--------9--------6|
F|--7--7h8----7--7h8----7--7h8----7--7h8----7--7-----7--7-----7--7-----7--7--|
D|---------------------------------------------------------------------------|
A|4-8-4-----4-8-4-----4-8-4-----4-8-4-------6--------6--------6--------6-----|
D|----------------------------------------6---6-6--6---6-6--6---6-6--6---6-6-|
 Bridge:
e|---------------------------------------------------------------------------|
B|--8----8--8----8--8----8--8----6--6----6--8----6--6----6--8----8--8----8--8|
F|-----7-------7-------7-------7-------7-------7-------7-------7-------7-----|
D|--6---6---6---6---6---6---6---6---6---6---6---6---6---6---6---6---6---6---6|
A|8---8---8---8---8---8---8---8---6---6---6---6---6---6---6---6---8---8---8--|
D|---------------------------------------------------------------------------|


e|-----------------------------------6--6----#--#-----| #= 11
B|---8--8----8--8----6--8----8--8---------------------|
F|-7-------7-------7-------7-------7-------7-------7--|
D|--6---6---6---6---6---6---6---6---6---6---6---6---6-|
A|8---8---8---8---8---6---6---6---6---6---6---6---6---|
D|----------------------------------------------------|

Chorus:
 Now time like an ocean knows tide like a notion to toss about the house and
                                                       lose inside the couch
e|---------------------------------------------------------------------------|
B|--------8---------9---------9---------6------------------------------------|
F|--8--7h8----8--7h8----8--7h8----8--7h8----7--7-7---7--7-7---7--7-7---7--7-7|
D|---------------------------------------------------------------------------|
A|--8---------8---------8---------8---------6--------6--------6--------6-----|
D|8---8-----8---8-----6---6-----6---6-----6---6-6--6---6-6--6---6-6--6---6-6-|
And piles of our thoughts run miles in the dark  just trying to get home
e|-----------------------------------------------8-----------------4---------|
B|--------8---------9---------9---------6---4--4-----4--4-6---4--4-----4--4-6|
F|--8--7h8----8--7h8----8--7h8----8--7h8-------------------------------------|
D|---------------------------------------------------------------------------|
A|--8---------8---------8---------8---------6--------6--------6--------6-----|
D|8---8-----8---8-----6---6-----6---6-----6---6-6--6---6-6--6---6-6--6---6-6-|
Verse:
 Age        by       age        we rhyme with our seasons               Rehearsed routines
e|--------4-------------------4------------------6---------------------------|
B|------------------6-------------------6-----------------8--------9--------6|
F|--7--7h8----7--7h8----7--7h8----7--7h8----7--7-----7--7-----7--7-----7--7--|
D|---------------------------------------------------------------------------|
A|4-8-4-----4-8-4-----4-8-4-----4-8-4-------6--------6--------6--------6-----|
D|----------------------------------------6---6-6--6---6-6--6---6-6--6---6-6-|
             Still turning             and returning
e|--------4-------------------4------------------6---------------------------|
B|------------------6-------------------6-----------------8--------9--------6|
F|--7--7h8----7--7h8----7--7h8----7--7h8----7--7-----7--7-----7--7-----7--7--|
D|---------------------------------------------------------------------------|
A|4-8-4-----4-8-4-----4-8-4-----4-8-4-------6--------6--------6--------6-----|
D|----------------------------------------6---6-6--6---6-6--6---6-6--6---6-6-|
  Pre-chorus:
e|-----------------------6--#-----|
B|--8----8--8----6--8-------------|
F|-----7-------7-------7-------7--|
D|--6---6---6---6---6---6---6---6-|
A|8---8---8---8---6---6---6---6---|
D|--------------------------------|
Chorus 6:
 Now time like an ocean knows tide like a notion to toss about the house and
                                                       lose inside the couch
e|-----------------------------------------------8--------4--------4---------|
B|--------8---------9---------9---------6---4--4-----4--4-----4--4-6---4--4-6|
F|--8--7h8----8--7h8----8--7h8----8--7h8-------------------------------------|
D|---------------------------------------------------------------------------|
A|--8---------8---------8---------8---------6--------6--------6--------6-----|
D|8---8-----8---8-----6---6-----6---6-----6---6-6--6---6-6--6---6-6--6---6-6-|
 And piles of our thoughts run miles in the dark  just trying to get home
e|-----------------------------------------------8--------4--------4---------|
B|--------8---------9---------9---------6---4--4-----4--4-----4--4-6---4--4-6|
F|--8--7h8----8--7h8----8--7h8----8--7h8-------------------------------------|
D|---------------------------------------------------------------------------|
A|--8---------8---------8---------8---------6--------6--------6--------6-----|
D|8---8-----8---8-----6---6-----6---6-----6---6-6--6---6-6--6---6-6--6---6-6-|

 Outro:
Now I'm wide as the ocean Now I bleed roses And you are just a mark on the
                                              map of my past  And I am a road
e|------------------6----6--6-----------------------#----#--#----------------|
B|--8----8--8----6---------------6--6----6--6--------------------6--8----8--8|
F|-----7-------7-------7-------7----7--7----7--7-------7-------7-------7-----|
D|--6---6---6---6---6---6---6---6-6---6-6-6---6-6---6---6---6---6---6---6---6|
A|6---6---6---6---8---8---8---8-------------------6---6---6---6---6---6---6--|
D|---------------------------------------------------------------------------|
 I wind along alone  All day until the coast
e|-------6----6--6--------------------1--#----#--#----#--#----#--#----8--8---|
B|----6---------------6--6----6--6-------------------------------------------|
F|--7-------7-------7----7--7----7--7-------7-------7-------7-------7-------7|
D|---6---6---6---6---6-6---6-6-6---6-6---6---6---6---6---6---6---6---6---6---|
A|-6---8---8---8---8-------------------6---6---6---6---6---6---6---6---6---6-|
D|---------------------------------------------------------------------------|

e|-8--8----#--#----#--#-----------------------------|
B|-------------------------8--8----8--8----6--6----6|
F|-------7-------7-------7-------7-------7-------7--|
D|6---6---6---6---6---6---6---6---6---6---6---6---6-|
A|--6---6---6---6---6---6---6---6---6---6---8---8---|
D|--------------------------------------------------|

Tap to rate this tab
 
# A B C D E F G H I J K L M N O P Q R S T U V W X Y Z