Song name
# A B C D E F G H I J K L M N O P Q R S T U V W X Y Z

Gregory And The Hawk - Bravo Charlie tab

Help us improve GuitareTab! Take a short survey!
Bravo Charlie / Like Daddy, Like Daughter
GATH

Standard Tuning - Capo on 1st Fret
Chords go like this
Cadd9 - Am - F - G

   Cadd9    Am     F     G 
e|-----3-----0-----1-----3-------|
B|-----3-----1-----1-----3-------|
G|-----0-----2-----2-----0-------|
D|-----2-----2-----3-----0-------|
A|-----3-----0-----3-----2-------|
E|-----------------1-----3-------|

the song
    
e|-------------------------------------------------|
B|-----3--3--------1--1--------1--1--------3--0----|
G|-----0--0--------2--2--------2--2--------0--0----|
D|---2-------0---2-------0-----------0-------------|
A|-3-----------0-------------3-----------2---------|
E|-------------------------1-----------3-----------|

the finger picking stays the same throughout the song

e|-------------------------------------------------|
B|-----3--3--------1--1--------1--0--------3--0----|
G|-----0--0--------2--2--------2--2--------0--0----|
D|---2-------0---2-------0-----------0-----------0-|
A|-3-----------0-------------3-----------2---------|
E|-------------------------1-----------3-----------|

Lyrics - per measure

I feel like singing sad songs all
night I feel like tuning you out
but you want to make it in to more of a
fight is this yelling what love's all about?

so go on, and tear me apart yeah just
go on aim straight for my chest
and maybe it's mostly my fault cause
if I'm the only girl you ever had
I guess I can't be the best
I can't be the best

and i feel like falling asleep while you
scream i feel like tuning you out
but you want to stand up and make a big
scene put the lid down, pick up the dog shit, and shut your mouth

so go on, and tear me apart yeah just
go on aim straight for my chest
and maybe it's mostly my fault cause
if i'm the only girl you ever had
i guess i can't be the best
i can't be the best

and I feel like singing sad songs all night

(ending on a Cadd9 chord) 
Related for Bravo Charlie tab