Song name
# A B C D E F G H I J K L M N O P Q R S T U V W X Y Z

Gregory And The Hawk - Bolder Thing To Do tab

A beautiful song, in fact i was shocked to find someone hadn't already tabbed it. But 
it is, 100% correct. (btw, first tab guys so cut me a little slack)


Intro and verse: (repeat as necessary)
------------------------------------------------------------|
---2------0------2-------0------2------3------2------3------|
-----2------2------2-------2------2------2------2------2----|
-------0------0------0-------0------0------0------0------0--|
------------------------------------------------------------|
---3------3------3------3-------2------2------2------2------|

Chorus:
--------------------------------|
---3------3------3--------------|
-----2------2------0---4-0------|
-------0------0------0-----0----|
---2----------------------------|
----------2------3--------------|
Tap to rate this tab
# A B C D E F G H I J K L M N O P Q R S T U V W X Y Z