Guitaretab - guitar tabs
Song name
# A B C D E F G H I J K L M N O P Q R S T U V W X Y Z

Gregory And The Hawk - Kill The Turkey tab

Title: Kill the Turkey
Artist: Gregory and the Hawk

Capo 2nd fret

Verse 1:
e|-------0----------0---|-------0---------0------|
B|---3----------3-------|---2-------2---------2--|
G|---0----------0-------|---2-------2---------2--| x4
D|----------------------|------------------------|
A|-----2---2------2---2-|-----0---0---------0----|
E|-0----------0---------|-2---------2---2--------|

Post-verse Riff:          (+) = harmonics
e|----------------------|-------------------------|
B|---3-----3----3-----3-|---------------------7---|
G|---0-----0----0-----0-|---7(+)---7(+)-----4---4-|
D|----------------------|---7(+)---7(+)---5-------|
A|-2---0/2----2---0/2---|-6------6------6---------|
E|----------------------|-------------------------|

Verse 2:
e|-------0---------0-----|-------0---------0------|
B|---3-------3---------3-|---2-------2---------2--|
G|---0-------0---------0-|---2-------2---------2--| x4
D|-----------------------|------------------------|
A|-----2---2---------2---|-----0---0---------0----|
E|-0---------0---0-------|-2---------2---2--------|

Chorus:
e|---2---2---2---2---2-|---3---3---3---3---3-|
B|---0---0---0---0---0-|---0---0---0---0---0-|
G|---------------------|---------------------| x2
D|-2---2---2---2---2---|-0---0---0---0---0---|
A|---------------------|---------------------|
E|---------------------|---------------------|

e|---2---2---2---2---2-|---3---3---3---3---3-|
B|---0---0---0---0---0-|---0---0---0---0---0-|
G|---------------------|---------------------|
D|---------------------|---------------------|
A|---------------------|---------------------|
E|-0---0---0---0---0---|-3---3---3---3---3---|
[ Tab from: http://www.guitaretab.com/g/gregory-and-the-hawk/94053.html ]
e|---2---2---2---2---2-|---------------------|
B|---0---0---0---0---0-|---3-----3-------7---|
G|---------------------|---0-----0-----4---4-|
D|---------------------|--------------5------|
A|---------------------|-2---0/3----6--------|
E|-0---0---0---0---0---|---------------------|

Verse 3:
e|-------0----------0---|-------0---------0------|
B|---3----------3-------|---2-------2---------2--|
G|---0----------0-------|---2-------2---------2--| x2
D|----------------------|------------------------|
A|-----2---2------2---2-|-----0---0---------0----|
E|-0----------0---------|-2---------2---2--------|

e|-------0---------0-----|-------0---------0------|
B|---3-------3---------3-|---2-------2---------2--|
G|---0-------0---------0-|---2-------2---------2--| x2
D|-----------------------|------------------------|
A|-----2---2---------2---|-----0---0---------0----|
E|-0---------0---0-------|-2---------2---2--------|



LYRICS:

[Verse 1]
Kill the turkey, shoot him down,
Pluck his feathers, Make him growl
Make burgers, kill the cow,
Slit his throat, let him bleed,
Make steaks, make burgers,
Good to eat

[Post-verse riff]

[Verse 2]
Kill the beast, took our daughter,
Iíll break off,
But if you want it bad enough,
Oh if you want it bad enough,

[Chorus]
Keep your eyes on the prize,
Keep your eyes on the prize,
Keep your eyes on the prize,
Keep your eyes on the prize,

[Verse 3]
Kiss the clever, one who said,
You made your bed,
now lie in it, Die in it,
Kiss the shit, that hit the fence,
When you went and killed,
Another man,

But if you want it bad enough,
If you want it bad enough,

[Chorus]
Keep your eyes on the prize,
Keep your eyes on the prize
Keep your eyes on the prize
Keep your eyes on the prize
Related for Kill The Turkey tab