Song name
# A B C D E F G H I J K L M N O P Q R S T U V W X Y Z

Gregory And The Hawk - Im Your Puppet tab

-------------------------------------------------------------------------------
			    I'm Your Puppet - Gregory and the Hawk
-------------------------------------------------------------------------------
Tabbed by:exterious
Email:exterious@gmail.com

Tuning:Standard

For the verse, B and B7 are usually played by hitting A D G strings
together and sometimes the B string on the 3rd beat.
I omitted the various times each chord is strummed.
Verse:
     I'm your puppet   I'll learn to love it  And I'll undress   if you
               B                     B7                B
e|-------------x---------------------x-----------------x---------------------|
B|-------------4---------------------4-----------------4---------------------|
G|-------------4---------------------3-----------------4---------------------|
D|-------------4---------------------4-----------------4---------------------|
A|-------------2---------------------2-----------------2---------------------|
E|-------------x---------------------x-----------------x---------------------|
  need it    but please don't need it    If you need it   I'll scream out
 G#m                      B add11               G#m          B add11
e|x-------------------------x--------------------x-------------x-------------|
B|4-------------------------4--------------------4-------------4-------------|
G|4-------------------------4--------------------4-------------4-------------|
D|6-------------------------2--------------------6-------------2-------------|
A|6-------------------------2--------------------6-------------2-------------|
E|4-------------------------0--------------------4-------------0-------------|
  Weave a secret  I will sweep it  beneath the carpet  where you'll keep it
          B                B7                    B                 G#m
e|--------x----------------x---------------------x------------------x--------|
B|--------4----------------4---------------------4------------------4--------|
G|--------4----------------3---------------------4------------------4--------|
D|--------4----------------4---------------------4------------------6--------|
A|--------2----------------2---------------------2------------------6--------|
E|--------x----------------x---------------------x------------------4--------|
 How weak is that  Wish i was worth it  to  you
   B add11                   G#m          B add11
e|---x------------------------x-------------x--------------------------------|
B|---4------------------------4-------------4--------------------------------|
G|---4------------------------4-------------4--------------------------------|
D|---2------------------------6-------------2--------------------------------|
A|---2------------------------6-------------2--------------------------------|
E|---0------------------------4-------------0--------------------------------|

Bridge:
 Bmaj  E sus2(maj7)  E5     Bmaj   E sus2(maj7)   E5    Bmaj  E sus2(maj7) E5
e|2--------2---------0-------2---------2----------0------2--------2--------0-|
B|4--------4---------5-------4---------4----------5------4--------4--------5-|
G|4--------4---------4-------4---------4----------4------4--------4--------4-|
D|4--------2---------2-------4---------2----------2------4--------2--------2-|
A|2--------2---------2-------2---------2----------2------2--------2--------2-|
E|x--------x---------x-------x---------x----------x------x--------x--------x-|
  B        G#m      B add11
e|x---------x----------x-----------------------------------------------------|
B|4---------4----------4-----------------------------------------------------|
G|4---------4----------4-----------------------------------------------------|
D|4---------6----------2-----------------------------------------------------|
A|2---------6----------2-----------------------------------------------------|
E|x---------4----------0-----------------------------------------------------|
Verse:
 Review my wishes   for fair weather  'Cause I know  if it clouds or rains
           B                 B7                B
e|---------x-----------------x-----------------x-----------------------------|
B|---------4-----------------4-----------------4-----------------------------|
G|---------4-----------------3-----------------4-----------------------------|
D|---------4-----------------4-----------------4-----------------------------|
A|---------2-----------------2-----------------2-----------------------------|
E|---------x-----------------x-----------------x-----------------------------|
  or snows  you won't be  there          How weak is that 
                G#m                         B add11      
e|---------------x----------------------------x------------------------------|
B|---------------4----------------------------4------------------------------|
G|---------------4----------------------------4------------------------------|
D|---------------6----------------------------2------------------------------|
A|---------------6----------------------------2------------------------------|
E|---------------4----------------------------0------------------------------|
 
     Wish I was worth it            to  you   
                G#m                   B add11       B
e|---------------x----------------------x-----------x------------------|
B|---------------4----------------------4-----------4------------------|
G|---------------4----------------------4-----------4------------------|
D|---------------6----------------------2-----------4------------------|
A|---------------6----------------------2-----------2------------------|
E|---------------4----------------------0-----------x------------------|





| /  slide up
| \  slide down
| h  hammer-on
| p  pull-off
| ~  vibrato
| +  harmonic
| x  Mute note
===============================================================================
Tap to rate this tab
 
# A B C D E F G H I J K L M N O P Q R S T U V W X Y Z