Guitaretab - guitar tabs
Song name
# A B C D E F G H I J K L M N O P Q R S T U V W X Y Z

Gregory Isaacs - Sinner Man tab

-------------------------------------------------------------------------------
			     Sinner Man - Gregory Isaacs
-------------------------------------------------------------------------------
Tabbed by: jojobeasty

Tuning: standard

Intro bit / Main riff:
[ Tab from: http://www.guitaretab.com/g/gregory-isaacs/148092.html ]
e|------7--------------------------------------------------------------------|
B|--------10p8---------------------------------------------------------------|
G|--------------10--10-------------------------------------------------------|
D|---------------------------------------------------------------------------|
A|---------------------------------------------------------------------------|
E|---------------------------------------------------------------------------|

verse / chorus (reggae style):
	     G					F
e|------3--3--3--3-----------------------1--1--1--1--------------------------|
B|------3--3--3--3-----------------------1--1--1--1--------------------------|
G|------4--4--4--4-----------------------2--2--2--2--------------------------|
D|------5--5--5--5-----------------------3--3--3--3--------------------------|
A|------5--5--5--5-----------------------3--3--3--3--------------------------|
E|------3--3--3--3-----------------------1--1--1--1--------------------------|

| p  pull-off
===============================================================================
Related for Sinner Man tab
Sinner Man chords by Gregory Isaacs