Song name
# A B C D E F G H I J K L M N O P Q R S T U V W X Y Z

Gregory Isaacs - Poor Millionaire tab

Title - Poor Millionaire
Artist - Gregory Isaacs
  
Tabbed by - mattydread2@gmail.com
             mattydread2@gmail.com

same pattern all the way thro with slight variations 
G|---------------------------------|
D|---------------------------------|
A|----7-7---5----5--5--7-7-------5-|
E|--5--5-5---3-3-----5--5-5--333---|

G|-----------------------------------|
D|-----------------------------------|
A|----7-7---5----5--5--7-7-------3/\-|
E|--5--5-5---3-3-----5--5-5--3-3-----|

  /\ = slide up & down

Tap to rate this tab
 
# A B C D E F G H I J K L M N O P Q R S T U V W X Y Z