Song name
# A B C D E F G H I J K L M N O P Q R S T U V W X Y Z

Gregory Isaacs - Give A Hand tab

-------------------------------------------------------------------------------
			     Give a Hand - Gregory Isaacs
-------------------------------------------------------------------------------
Tabbed by: jojobeasty

Tuning: standard

Intro/Main riff:
e|---------------------------------------------------------------------------|
B|-12-12-12-12-12-12-12-12-10------------------------------------------------|
G|----------------------------12-------------------10------------------------|X2
D|-------------------------------9-9-9-9-9-9-9-9-9----12---------------------|
A|---------------------------------------------------------------------------|
E|---------------------------------------------------------------------------|

Main chord progression played throughout song (reggae style):

	G			C		D
e|--3--3--3--3---------------------------------------------------------------|
B|--3--3--3--3---------------5--5------------7--7----------------------------|
G|--4--4--4--4---------------5--5------------7--7----------------------------|
D|--5--5--5--5---------------5--5------------7--7----------------------------|
A|--5--5--5--5---------------3--3------------5--5----------------------------|
E|--3--3--3--3---------------------------------------------------------------|

===============================================================================
Tap to rate this tab
# A B C D E F G H I J K L M N O P Q R S T U V W X Y Z