Guitaretab - guitar tabs
Song name
# A B C D E F G H I J K L M N O P Q R S T U V W X Y Z

Gregory Isaacs - Sinner Man tab

Sinner Man is a traditional American song about the end of times. It has an intresting 
to it and is an awsome solo in second octave. Here is my tab for it, enjoy. I will post 
in both first and second octave. Extremely simple but I was really, really bored. haha...

Tabbed by:Jared Elm
Email:jleracing@hotmail.com

Tuning: Standard


                               First Octave with Chords

    Am                 G
e|-0-------0-0-0---0-3--------------------3---------------------------------|
B|---1-0---------3-----3-0----3-3-3-1-3-------------------------------------|
G|-------2-----------------2------------------------------------------------|
D|--------------------------------------------------------------------------|
A|--------------------------------------------------------------------------|
E|--------------------------------------------------------------------------|
   Am                  Em     Am
e|-0-------0-0-0---0-3-0----------------------------------------------------|
B|---1-0---------3-------3-0------------------------------------------------|
G|-------2---------------------2--------------------------------------------|
D|--------------------------------------------------------------------------|
A|--------------------------------------------------------------------------|
E|--------------------------------------------------------------------------|


                           Second Octave (Solo type version)
[ Tab from: http://www.guitaretab.com/g/gregory-isaacs/79233.html ]
These are all 12's and above. Not 1's and 2's. Basically open is moved up to the 12th 
It takes a little while to get used to. Feel free to bend into some of these notes to make 
sound pretty. I usually bend the notes that should hold, just so people don't get bored with it.

e|-12----------12-12-12---12-15----------------------------15---------------|
B|----13-12-------------15------15-12-------15-15-15-13-15------------------|
G|----------14------------------------14-12---------------------------------|
D|--------------------------------------------------------------------------|
A|--------------------------------------------------------------------------|
E|--------------------------------------------------------------------------|

e|-12----------12-12-12----12-15-12-----------------------------------------|
B|----13-12-------------15----------15-12-----------------------------------|
G|----------14----------------------------14--------------------------------|
D|--------------------------------------------------------------------------|
A|--------------------------------------------------------------------------|
E|--------------------------------------------------------------------------|


Alright, thanks to the extremely few people who will see this. You never know who will 
Sinner Man in second octave though!

Jared


| /  slide up
| \  slide down
| h  hammer-on
| p  pull-off
| ~  vibrato
| +  harmonic
| x  Mute note
============================================================================
Related for Sinner Man tab
Advertisement will be closed in 10 seconds