Song name
# A B C D E F G H I J K L M N O P Q R S T U V W X Y Z

Greta - Nature tab

Help us improve GuitareTab! Take a short survey!
-##
Date: Thu, 7 Dec 1995 22:24:55 -0700
From: Adam Greenbaum 


Artist - Greta
Song - Nature
Album - No Biting

Transcribed by Adam Greenbaum
greenbau@u.arizona.edu

h = hammer on
p = pull off
/ = slide
b = bend
r = release


Solo:

E|------------------------------------------------------------------------------------|
B|------------------------------------------------------------------------------------|
G|------------------------------------------------------------------------------------|
D|--h--p-h--p-h--p-h------h--p-h--p-h--p-h--------p-----------------------------------|
A|-9-10-9-10-9-10-9-10---9-10-9-10-9-10-9-10----10-8-8-8------------------------------|
D|-------------------------------------------------------8-10-10-10---10-11-10-8-6----|


E|---------------------------------------------------------------------|
B|----------------------------------------------------------b----------|
G|--------------------------------------------------------12-(12.5)----|
D|-----13---p------13---p------13---p------13------\10-13--------------|
A|-\11----11-10-10----11-10-10----11-10-10----10\3---------------------|
D|---------------------------------------------------------------------|



E|---------b----r---------b----r--------------b----r---------b----r---------|
B|-------12-(13)-12~----12-(13)-12----------12-(13)-12~----12-(13)-12-------|
G|----12---------------------------12----12---------------------------------|
D|-12----------------12---------------12----------------12------------12----|
A|--------------------------------------------------------------------------|
D|--------------------------------------------------------------------------|



E|---------------------------------------------------------------------|
B|-------12\13-15~-15-16-15-15-13-------------------b-------r---11~----|
G|----12----------------------------b-------r-----10-(10.75)-10--0-----|
D|-12-----------------------------10-(10.75)-10-8----------------------|
A|---------------------------------------------------------------------|
D|---------------------------------------------------------------------|


--=====================_818403565==_--
Related for Nature tab