Song name
# A B C D E F G H I J K L M N O P Q R S T U V W X Y Z

Gretchen - Dont Wanna Be tab

Help us improve GuitareTab! Take a short survey!
Donít Wanna Be - Gretchen - In The Mean Time

Intro/Outro
e|--------|
b|--------|
g|--8--6--|
d|--8--6--|
a|--6--4--|
E|--------|

Verse
e|--------|-----|
b|--------|-----|
g|--8--6--|-----|
d|--8--6--|--9--|
a|--6--4--|--9--|
E|--------|--7--|
Pm  .

Chorus
e|--------------------------------------------|
b|--------------------------------------------|
g|--8--6--------8--6-----6-----6--8-----4--3--|
d|--8--6--4--6--8--6--9--6--8--6--8--4--4--3--|
a|--6--4--4--6--6--4--9--4--8--4--6--4--2--1--|
E|--------2--4--------7-----6--------2--------|

e|-----------------------------|
b|-----------------------------|
g|--8--6--------------8--6-----|
d|--8--6--4--6--4--6--8--6--9--|
a|--6--4--4--6--4--6--6--4--9--|
E|--------2--4--2--4--------7--|
Pm  .........................
Related for Dont Wanna Be tab