Song name
# A B C D E F G H I J K L M N O P Q R S T U V W X Y Z

Grey Daze - Whats In The Eye tab

I don't know why this is so hard for some people to tab... I looked and couldn't find 
that was right, so I made my own.

This tab is %100 correct.

Any questions or comments, please E-Mail me at MajiksMonster@LinkinPark.com


Artist: Grey Daze
Song:   What's in The Eye?
Ambum:  Wake Me


Standard tuning

Guitar 1

Play this part 8 times:
e|---------------7-----|
D|-----------0-----0---|
B|---5-4-5-2---0-----0-|
G|---------------------|
A|-0-------------------|
E|---------------------|

Guitar 2

Play this part once on the 3 time you play the first part:
e|---------------------|
D|---------------------|
B|---------------------|
G|----------(12)-------|
A|------------(12)-----|
E|--------------(12)-5-|
Tap to rate this tab
 
# A B C D E F G H I J K L M N O P Q R S T U V W X Y Z