Song name
# A B C D E F G H I J K L M N O P Q R S T U V W X Y Z

Grey Daze - Hole tab

-----------------------------------------------------------------------------
			     Hole - Grey Daze
-----------------------------------------------------------------------------
Tabbed by:Chester BenninG
Email:KROSSBREED70@AOL.COM

Tuning:Standard
Intro:
repeat as many times as necessary.

e|---------------------------------------------------------------------------|
B|---------------------------------------------------------------------------|
G|---------------------------------------------------------------------------|
D|---------------------------------------------------------------------------|
A|----2---4------0----0----0-------------------------------------------------|
E|-0---------0----3----3-----------------------------------------------------|

Chorus:

e|---------------------------------------------------------------------------|
B|---------------------------------------------------------------------------|
G|--2---2-----4---4------5---5-----------------------------------------------|
D|--2---2-----4---4------5---5-----5---5-------------------------------------|
A|--0---0-----2---2------3---3-----5---5-------------------------------------|
E|---------------------------------3---3-------------------------------------|

Bridge:

e|---3---3-----2---2-----0---------------------------------------------------|
B|---0---0-----3---3-----0---------------------------------------------------|
G|---0---0-----4---4-----1---------------------------------------------------|
D|---0---0-----4---4-----2---------------------------------------------------|
A|---2---2-----2---2-----2---------------------------------------------------|
E|---3---3---------------0---------------------------------------------------|


| /  slide up
| \  slide down
| h  hammer-on
| p  pull-off
| ~  vibrato
| +  harmonic
| x  Mute note
============================================================================
Tap to rate this tab
# A B C D E F G H I J K L M N O P Q R S T U V W X Y Z