Song name
# A B C D E F G H I J K L M N O P Q R S T U V W X Y Z

Grey Daze - Sometimes tab

tabbed by: Marian-Mina Mihai (Lalu)
	This is my favorite song, and I think it's the BEST EVER. 

	Grey Daze - Sometimes
	No Sun Today

Verse (X2):
Guitar I:
e|-0-------0-----0-------0-----0---------------------------------|
B|-1-------1h3-------3---1h3h1-1---0---0-0-0---0-0----0-0--0-0-0-|
G|-2-------2---2---------2-----2---0-------0---0-0----0-0--0-0-0-|
D|-2-------2-------------2-----2---0-------0---0-2----2-2--2-2-2-|
A|-0-------0-------------0-----0---2-------2---2-2----2-2--2-2-2-|
E|---------------------------------3-------3---3-0----0-0--0-0-0-|

e|-0-------0-----0-------0-----0--0----0---0-0---0-0---0-0-0-0-0-|
B|-1-------1h3-------3---1h3h1-1--1----1---1-1---0-0---0-0-0-0-0-|
G|-2-------2---2---------2-----2--0----0---0-0---0-0---0-0-0-0-0-|
D|-2-------2-------------2-----2--2----2---2-2---2-2---2-2-2-2-2-|
A|-0-------0-------------0-----0--3----3---3-3---3-3---3-3-3-3-3-|
E|---------------------------------------------------------------|

e|-0-------0-----0-------0-----0---------------------------------|
B|-1-------1h3-------3---1h3h1-1---0---0-0-0---0-0----0-0--0-0-0-|
G|-2-------2---2---------2-----2---0-------0---0-0----0-0--0-0-0-|
D|-2-------2-------------2-----2---0-------0---0-2----2-2--2-2-2-|
A|-0-------0-------------0-----0---2-------2---2-2----2-2--2-2-2-|
E|---------------------------------3-------3---3-0----0-0--0-0-0-|

e|-0-------0-----0-------0-----0--0----0---0-0---0-0---3-3-3-3-3-|
B|-1-------1h3-------3---1h3h1-1--1----1---1-1---0-0---2-2-2-2-2-|
G|-2-------2---2---------2-----2--0----0---0-0---0-0---3-3-3-3-3-|
D|-2-------2-------------2-----2--2----2---2-2---2-2-------------|
A|-0-------0-------------0-----0--3----3---3-3---3-3-------------|
E|---------------------------------------------------------------|

Bass:

G|-----------------------------------------------------------|
D|-----------------------------------------------------------|
A|-0---0---0---0-0---0---------------------------------------|
E|--------------------------------3-------3---3-0------------|

Chorus (x4):

e|------------------------------------------------------------------|
B|------------------------------------------------------------------|
G|-2--------------------------------7---------------5---------------|
D|-2----------------2---------------X---------------X---------------|
A|-0----------------2---------------5---------------3---------------|
E|------------------0-----------------------------------------------|

Verse:

Chorus (x4):

Solo:


e|---------------------------------0--------0----------------------|
B|--------8------------------------------------8----10----10--11---|
G|--7---------------------------------7--7-------------------------|
D|-----------------------------------------------------------------|
A|-----------------------------------------------------------------|
E|-----------------------------------------------------------------|

e|---------------10------------10----------------------------------|
B|-12--10----12-------11--12-------12---11--10---8--10---8----7----|
G|-----------------------------------------------------------------|
D|-----------------------------------------------------------------|
A|-----------------------------------------------------------------|
E|-----------------------------------------------------------------|

e|------------0--------0-----0-----------10--------------12--|
B|-7---8---7-----7--------8------8---10------10--11--12------|
G|------------------7----------------------------------------|
D|-----------------------------------------------------------|
A|-----------------------------------------------------------|
E|-----------------------------------------------------------|

e|------12-------------------------10----11---12--10----12---11--|
B|--12------12--11--10--8--10--12--------------------------------|
G|---------------------------------------------------------------|
D|---------------------------------------------------------------|
A|---------------------------------------------------------------|
E|---------------------------------------------------------------|

e|--10--------------------------------------0--------0------------------------|
B|--------12--------12--10--12--10--8--8----------------8--10--8----8--10--8--|
G|---------------------------------------------8--8---------------------------|
D|----------------------------------------------------------------------------|
A|----------------------------------------------------------------------------|
E|----------------------------------------------------------------------------|

e|--0-----0-------------------------0-------------10--11---|
B|-----8-----------8---8---8-----8-----8--10--12-----------|
G|-----------7--7------------------------------------------|
D|---------------------------------------------------------|
A|---------------------------------------------------------|
E|---------------------------------------------------------|

e|--12--12----12---11--10--12----|--13-------------------|--15-------------------|
D|-------------------------------|-----------------------|-----------------------|
G|-------------------------------|-----------------------|-----------------------|
B|-------------------------------|-----------------------|-----------------------|
A|-------------------------------|-----------------------|-----------------------|
E|-------------------------------|-----------------------|-----------------------|

e|--12-------------------|--10-------------------|--8-------------------|
D|-----------------------|-----------------------|----------------------|
G|-----------------------|-----------------------|----------------------|
B|-----------------------|-----------------------|----------------------|
A|-----------------------|-----------------------|----------------------|
E|-----------------------|-----------------------|----------------------|

e|--19-17-15-13-12-10-8-7---------------------0--1--3--1--3--5--3--5--|
D|------------------------10-8-6--------------------------------------|
G|-------------------------------10-7---------------------------------|
B|------------------------------------10-9-7--------------------------|
A|--------------------------------------------------------------------|
E|--------------------------------------------------------------------|

e|--7--3--5--7--------5--3--|
D|--------------------------|
G|--------------------------|
B|--------------------------|
A|--------------------------|
E|--------------------------|

Chorus (x8):

Verse:
Tap to rate this tab
 
# A B C D E F G H I J K L M N O P Q R S T U V W X Y Z