Grey Daze - Starting To Fly tab

Grey Daze - Starting to Fly - by Mateoz555

Tuning - Standard


guitar parts starts at time:

 0:45

E---------------------------------------------------| 
B---------------------------------------------------| 
G---------------------------------------------------| 
D----2-2-xx-2-2---x---5-5---7-7-7-7-7-7-7-5-5-------| x4
A----2-2-xx-2-2---x---5-5---7-7-7-7-7-7-7-5-5-------| 
E----0-0-xx-0-0---x---3-3---5-5-5-5-5-5-5-3-3-------|


 1:42



E---------------------------------------------------------------| 
B---------------------------------------------------------------| 
G------------------------------------------9-9--9-9--9---7------| 
D----2--2-2----5--5-5--5-5----7--7-7-------9-9--9-9--9---7------| x4
A----2--2-2----5--5-5--5-5----7--7-7-------7-7--7-7--7---5------| 
E----0--0-0----3--3-3--3-3----5--5-5----------------------------|

 2:04

E--------------------------------------| 
B--------------------------------------| 
G--------------------------------------| 
D--------7--7-7----9--9-9--9-9-9-------| x8
A--------7--7-7----9--9-9--9-9-9-------| 
E--------5--5-5----7--7-7--7-7-7-------|

 again

 2:49

E--------------------------------------| 
B--------------------------------------| 
G--------------------------------------| 
D--------7--7-7----9--9-9--9-9-9-------| x4
A--------7--7-7----9--9-9--9-9-9-------| 
E--------5--5-5----7--7-7--7-7-7-------|

 SOLO

 3:01       listen and play well

E---------------------------------------------------------------------10-12-15b16-15-12-15-12~--
B--------------------------------------------------------7-8-7-9b10----------------------------- 
G------9b10---10-9-7-9-7~---------7-9-7-9b10-10~---7-7-9---------------------------------------- 
D---------------------------7-7-9--------------------------------------------------------------- 
A-----------------------------------------------------------------------------------------------
E-----------------------------------------------------------------------------------------------

-
E---12-15-12-15-12------------------------------------------------------------------------ 
B------------------15-12-15b17-15~----12-13-12-13-12-------------------------------------- 
G----------------------------------------------------14-12-14b15-14-12-14b15-14-12-12-----
D-----------------------------------------------------------------------------------------
A-----------------------------------------------------------------------------------------
E-----------------------------------------------------------------------------------------

E---------------------------------------------------------------------------| 
B---------12-15-12-15-12-------12-15-12-15-12-15-12-15-12-15-12-15b17-------| 
G---12-14----------------14-12----------------------------------------------| 
D---------------------------------------------------------------------------| 
A---------------------------------------------------------------------------| 
E--------------------------------------more speed at the end of solo--------|



 3:23

E---------------------------------------------------------------| 
B---------------------------------------------------------------| 
G------------------------------------------9-9--9-9--9---7------| 
D----2--2-2----5--5-5--5-5----7--7-7-------9-9--9-9--9---7------| x8
A----2--2-2----5--5-5--5-5----7--7-7-------7-7--7-7--7---5------| 
E----0--0-0----3--3-3--3-3----5--5-5----------------------------|


Tap to rate this tab
 
# A B C D E F G H I J K L M N O P Q R S T U V W X Y Z