Song name
# A B C D E F G H I J K L M N O P Q R S T U V W X Y Z

Grey Daze - Sickness tab

Grey Daze
Sickness

Tabbed by Mirk121

Drop D

Guitar 1 (Delay)
Guitar 2 (Distorted)
Guitar 3 (Distorted)

Intro

Guitar 1
----------------------------------------------------------------------------|
----------------------------------------------------------------------------|
-7-7---7-7----------------------------7-7---7-7-----------------------------|
-x-x---x-x----------------------------x-x---x-x-----------------------------|
-5-5---5-5----------------------------5-5---5-5-----------------------------|
----------------------------------------------------------------------------|

Guitar 2
----------------------------------------------------------------------------|
----------------------------------------------------------------------------|
-------------12-----14-----10-----7~--------------12-----14-----10-----7~---|
-------------x------x------x------x---------------x------x------x------x~---|
-------------10-----12-----8------5~--------------10-----12-----8------5~---|
----------------------------------------------------------------------------|

Verse

Guitar 1
----------------------------------------------------------------------------|
----------------------------------------------------------------------------|
-7-7---7-7----------------------------7-7---7-7-----------------------------|
-x-x---x-x----------------------------x-x---x-x-----------------------------|
-5-5---5-5----------------------------5-5---5-5-----------------------------|
----------------------------------------------------------------------------|

Guitar 2
----------------------------------------------------------------------------|
----------------------------------------------------------------------------|
-------------12-----14-----10-----7~--------------12-----14-----10-----7~---|
-------------x------x------x------x---------------x------x------x------x~---|
-------------10-----12-----8------5~--------------10-----12-----8------5~---|
----------------------------------------------------------------------------|

Guitar 1
----------------------------------------------------------------------------|
----------------------------------------------------------------------------|
-7-7---7-7----------------------------7-7---7-7-----------------------------|
-x-x---x-x----------------------------x-x---x-x-----------------------------|
-5-5---5-5----------------------------5-5---5-5-----------------------------|
----------------------------------------------------------------------------|

Guitar 2
----------------------------------------------------------------------------|
----------------------------------------------------------------------------|
-------------12-----14-----10-----7~--------------12-----14-----10-----7/---|
-------------x------x------x------x---------------x------x------x------x/---|
-------------10-----12-----8------5~--------------10-----12-----8------5/---|
----------------------------------------------------------------------------|

Chorus

Guitar 2 & 3
----------------------------------------------------------------------------|
----------------------------------------------------------------------------|
-4--4--4--4--4-4-4--5--5--5--5--5-5-5--4--4--4--4--4-4-4--5--5--5--5--5-5-5-|
-4--4--4--4--4-4-4--5--5--5--5--5-5-5--4--4--4--4--4-4-4--5--5--5--5--5-5-5-|
-2--2--2--2--2-2-2--3--3--3--3--3-3-3--2--2--2--2--2-2-2--3--3--3--3--3-3-3-|
-2--2--2--2--2-2-2--3--3--3--3--3-3-3--2--2--2--2--2-2-2--3--3--3--3--3-3-3-|

----------------------------------------------------------------------------|
----------------------------------------------------------------------------|
-4--4--4--4--4-4-4--5--5--5--5--5-5-5--4--4--4--4--4-4-4--5--5--5--5--5-5-5-|
-4--4--4--4--4-4-4--5--5--5--5--5-5-5--4--4--4--4--4-4-4--5--5--5--5--5-5-5-|
-2--2--2--2--2-2-2--3--3--3--3--3-3-3--2--2--2--2--2-2-2--3--3--3--3--3-3-3-|
-2--2--2--2--2-2-2--3--3--3--3--3-3-3--2--2--2--2--2-2-2--3--3--3--3--3-3-3-|

----------------------------------------------------------------------------|
----------------------------------------------------------------------------|
-4--4--4--4--4-4-4--5--5--5--5--5-5-5--4--4--4--4--4-4-4--5--5--5--5--5-5-5-|
-4--4--4--4--4-4-4--5--5--5--5--5-5-5--4--4--4--4--4-4-4--5--5--5--5--5-5-5-|
-2--2--2--2--2-2-2--3--3--3--3--3-3-3--2--2--2--2--2-2-2--3--3--3--3--3-3-3-|
-2--2--2--2--2-2-2--3--3--3--3--3-3-3--2--2--2--2--2-2-2--3--3--3--3--3-3-3-|

Pre-Verse

Guitar 1
----------------------------------------------------------------------------|
----------------------------------------------------------------------------|
-7-7---7-7----------------------------7-7---7-7-----------------------------|
-x-x---x-x----------------------------x-x---x-x-----------------------------|
-5-5---5-5----------------------------5-5---5-5-----------------------------|
----------------------------------------------------------------------------|

Guitar 2
----------------------------------------------------------------------------|
----------------------------------------------------------------------------|
-------------12-----14-----10-----7~--------------12-----14-----10-----7~---|
-------------x------x------x------x---------------x------x------x------x~---|
-------------10-----12-----8------5~--------------10-----12-----8------5~---|
----------------------------------------------------------------------------|

Verse

Guitar 1
----------------------------------------------------------------------------|
----------------------------------------------------------------------------|
-7-7---7-7----------------------------7-7---7-7-----------------------------|
-x-x---x-x----------------------------x-x---x-x-----------------------------|
-5-5---5-5----------------------------5-5---5-5-----------------------------|
----------------------------------------------------------------------------|

Guitar 2
----------------------------------------------------------------------------|
----------------------------------------------------------------------------|
-------------12-----14-----10-----7~--------------12-----14-----10-----7~---|
-------------x------x------x------x---------------x------x------x------x~---|
-------------10-----12-----8------5~--------------10-----12-----8------5~---|
----------------------------------------------------------------------------|

Guitar 1
----------------------------------------------------------------------------|
----------------------------------------------------------------------------|
-7-7---7-7----------------------------7-7---7-7-----------------------------|
-x-x---x-x----------------------------x-x---x-x-----------------------------|
-5-5---5-5----------------------------5-5---5-5-----------------------------|
----------------------------------------------------------------------------|

Guitar 2
----------------------------------------------------------------------------|
----------------------------------------------------------------------------|
-------------12-----14-----10-----7~--------------12-----14-----10-----7/---|
-------------x------x------x------x---------------x------x------x------x/---|
-------------10-----12-----8------5~--------------10-----12-----8------5/---|
----------------------------------------------------------------------------|

Chorus

Guitar 2 & 3
----------------------------------------------------------------------------|
----------------------------------------------------------------------------|
-4--4--4--4--4-4-4--5--5--5--5--5-5-5--4--4--4--4--4-4-4--5--5--5--5--5-5-5-|
-4--4--4--4--4-4-4--5--5--5--5--5-5-5--4--4--4--4--4-4-4--5--5--5--5--5-5-5-|
-2--2--2--2--2-2-2--3--3--3--3--3-3-3--2--2--2--2--2-2-2--3--3--3--3--3-3-3-|
-2--2--2--2--2-2-2--3--3--3--3--3-3-3--2--2--2--2--2-2-2--3--3--3--3--3-3-3-|

----------------------------------------------------------------------------|
----------------------------------------------------------------------------|
-4--4--4--4--4-4-4--5--5--5--5--5-5-5--4--4--4--4--4-4-4--5--5--5--5--5-5-5-|
-4--4--4--4--4-4-4--5--5--5--5--5-5-5--4--4--4--4--4-4-4--5--5--5--5--5-5-5-|
-2--2--2--2--2-2-2--3--3--3--3--3-3-3--2--2--2--2--2-2-2--3--3--3--3--3-3-3-|
-2--2--2--2--2-2-2--3--3--3--3--3-3-3--2--2--2--2--2-2-2--3--3--3--3--3-3-3-|

----------------------------------------------------------------------------|
----------------------------------------------------------------------------|
-4--4--4--4--4-4-4--5--5--5--5--5-5-5--4--4--4--4--4-4-4--5--5--5--5--5-5-5-|
-4--4--4--4--4-4-4--5--5--5--5--5-5-5--4--4--4--4--4-4-4--5--5--5--5--5-5-5-|
-2--2--2--2--2-2-2--3--3--3--3--3-3-3--2--2--2--2--2-2-2--3--3--3--3--3-3-3-|
-2--2--2--2--2-2-2--3--3--3--3--3-3-3--2--2--2--2--2-2-2--3--3--3--3--3-3-3-|

Bridge

Guitar 2 (Palm muted)
----------------------------------------------------------------------------|
----------------------------------------------------------------------------|
-4-4-4------4------4------5-5-5------5------5------4-4-4------4------4------|
-4-4-4------4------4------5-5-5------5------5------4-4-4------4------4------|
-2-2-2------2------2------3-3-3------3------3------2-2-2------2------2------|
----------------------------------------------------------------------------|

Guitar 3
----------------------------------------------------------------------------|
----------------------------------------------------------------------------|
--------12-----12-----12---------12-----12-----12---------12-----12-----12--|
--------x------x------x----------x------x------x----------x------x------x---|
--------10-----10-----10---------10-----10-----10---------10-----10-----10--|
----------------------------------------------------------------------------|

Guitar 2 (Palm muted)
----------------------------------------------------------------------------|
----------------------------------------------------------------------------|
-5-5-5------5------5------4-4-4------4------4------5-5-5------5------5------|
-5-5-5------5------5------4-4-4------4------4------5-5-5------5------5------|
-3-3-3------3------3------2-2-2------2------2------3-3-3------3------3------|
----------------------------------------------------------------------------|

Guitar 3
----------------------------------------------------------------------------|
----------------------------------------------------------------------------|
--------12-----12-----12---------12-----12-----12---------12-----12-----12--|
--------x------x------x----------x------x------x----------x------x------x---|
--------10-----10-----10---------10-----10-----10---------10-----10-----10--|
----------------------------------------------------------------------------|

Guitar 2 (Palm muted)
----------------------------------------------------------------------------|
----------------------------------------------------------------------------|
-4-4-4------4------4------5-5-5------5------5-------------------------------|
-4-4-4------4------4------5-5-5------5------5-------------------------------|
-2-2-2------2------2------3-3-3------3------3-------------------------------|
----------------------------------------------------------------------------|

Guitar 3
----------------------------------------------------------------------------|
----------------------------------------------------------------------------|
--------12-----12-----12---------12-----12-----12---------------------------|
--------x------x------x----------x------x------x----------------------------|
--------10-----10-----10---------10-----10-----10---------------------------|
----------------------------------------------------------------------------|

Outro

Guitar 1
----------------------------------------------------------------------------|
----------------------------------------------------------------------------|
---------------------------------------------------4-4---4-4----------------|
---------------------------------------------------4-4---4-4----------------|
---------------------------------------------------2-2---2-2----------------|
----------------------------------------------------------------------------|
Tap to rate this tab
# A B C D E F G H I J K L M N O P Q R S T U V W X Y Z