Song name
# A B C D E F G H I J K L M N O P Q R S T U V W X Y Z

Grey Revell - Gone Gone tab

---------------------------------------------------------------------
                         Grey Revell - Gone gone
---------------------------------------------------------------------
Tabbed by: smoil
Email: -
Tuning: Standard (EADGBE)


        A                           E
        E  E  E  E  E  E  E  E      Q     E  E  E  E  E  E
E|| ----------0-----------0------|--------0-----------0---------|
B|| ----------2-----------2------|--------0-----------0---------|
G|| *------------2-----------0---|-----------1-----------0------|
D|| *------2-----------2---------|------------------2-----------|
A|| ----0-----------0------------|--2-----------2---------------|
E|| -----------------------------|------------------------------|

  Bm                        D                           A              E
  Q    E  E  E  E  E  E     Q    E  Q    E  E  E   3x   Q    Q    Q    Q
-------2-----------2-----|-------------------------||-----------------------|
-------3-----------3-----|-------3-------3-----0---||--------2----2----0----|
----------4-----------0--|----------2-------2-----*||*----------------------|
----------------2--------|--0---------------------*||*------------0----2----|
--2----------2-----------|-------------------------||---0-------------------|
-------------------------|-------------------------||-----------------------|

                     Bm                         D
  E  E  E  Q    Q    E     E  E  E  E  E  E  E  E     E  E  Q.    E  E  E  4x
------------------------|-----------2--------------|--------2--------------||
-----0-----0---------3--|-----3--------3-----0--3--|-----3--------3-----0--||
--1-------------1-------|--4--------------2--------|--2--------------2----*||
------------------------|-----------------------0--|----------------------*||
--------0------------2--|--------2-----------------|-----------------------||
------------------------|--------------------------|-----------------------||

  A                          E                         Bm
  E  E  E  E  E  E  E  E     Q    E  E  E  E  E  E    Q    E  E  E  E  E  E
--------0-----------0-----|-------0-----------0-----|------2-----------2----|
--------2-----------2-----|-------0-----------0-----|------3-----------3----|
-----------2-----------0--|----------1-----------0--|---------4-----------0-|
-----2-----------2--------|----------------2--------|---------------2-------|
--0-----------0-----------|--2----------2-----------|-2----------2----------|
--------------------------|-------------------------|-----------------------|

  D                                                   Duration Legend
  Q    E  Q    E  E  E      W                         w- whole
-------------------------|------------------||        Q- quater
-------3-------3-----0---|------------------||        E- 8th
----------2-------2------|------------------||        .- Note dotted
-------------------------|------------------||        
--0----------------------|--0---------------||
-------------------------|------------------||

http://greyrevell.com/
Tap to rate this tab
# A B C D E F G H I J K L M N O P Q R S T U V W X Y Z