Grey Sky Morning - Gadis Pemalu tab

Gadis Pemalu - Grey Sky Morning

INTRO

    A         C#m       Bm           E
e|---------------------------------------------------|
B|--10-10-9-9-10-10-9-9-10-10-9-9-10-10-9-9-10~------|
G|----9--9-9-9--9--9-9-9--9--9-9-9--9--9-9-9---------|
D|---------------------------------------------------|
A|---------------------------------------------------|
E|---------------------------------------------------|


    A         C#m         Bm          E
e|--5---------4-----------2-----------7----|
B|--5---------5-----------3-----------9----|
G|--6---------6-----------4-----------9----|
D|--7---------6-----------4-----------9----|
A|--7---------4-----------2-----------7----|
E|--5---------x-----------x-----------x----|


A
Si gadis yang pemalu
C#m
Melambai ke arahku
Bm
Memandang ke arahku
E
Senyum tersipu
A
Ke mari
C#m
Datang kepadaku
Bm
Ku ingin menyanyi
E
Nyanyian untukmu

Bm
Sayangku
C#m
Mari kepadaku
Bm
Jangan malu-malu
C#m
Menari denganku
Bm
Ikut rentak lagu
C#m
Nyanyikan laguku
       D    Dm
Ikut iramaku


Korus
A
Hey si gadis
   C#m
Si gadis pemalu
    Bm
Yang comel dan ayu
    E
Menawan hatiku hey hey hey
A
Hey si gadis
   C#m
Si gadis pemalu
      Bm
Jangan control ayu
      E
Lalalalalalalalala...


yang lain same cam atas je

Si gadis yang pemalu
Melambai ke arahku
Mengangguk tanda setuju
Berjumpa denganku

Ke mari
Datang kepadaku
Ku ingin menyanyi
Nyanyian untukmu

Sayangku
Mari kepadaku
Jangan malu-malu
Menari denganku
Ikut rentak lagu
Nyanyikan laguku
Ikut iramaku

Korus
Hey si gadis
Si gadis pemalu
Yang comel dan ayu
Menawan hatiku hey hey hey
Hey si gadis
Si gadis pemalu
Yang comel dan ayu
Lalalalalalalalala...

Sayangku
Mari kepadaku
Jangan malu-malu
Menari denganku
Ikut rentak lagu
Nyanyikan laguku
Ikut iramaku

Korus
Hey si gadis
Si gadis pemalu
Yang comel dan ayu
Menawan hatiku hey hey hey
Hey si gadis
Si gadis pemalu
Jangan control ayu
Lalalalalalalalala...

Hey si gadis
Hey si gadis

keiri85@gmail.com
Tap to rate this tab
 
# A B C D E F G H I J K L M N O P Q R S T U V W X Y Z