Guitaretab - guitar tabs
Song name
# A B C D E F G H I J K L M N O P Q R S T U V W X Y Z

Greyhoundz - Shoot To Kill tab

for comments and suggestions , free lesson
just txt/dial/ 09283150081
by Francis
Lucena City
SHC
 

Legend-
x-dead string
h-hammer
+-harmonic
*-palm mute
/\-slide


GtrI - Drop B -(B F# B E G# C#) 

Intro-
GtrI
C#|-------------------------------------------------------------------|
G#|-------------------------------------------------------------------|
 E|-------------------------------------------------------------------|
 B|-0-x-0-x-0-x-0-x----------------0-x-0-x-0-x-0-x--------------------|2x
F#|-0-x-0-x-0-x-0-x--7h8-7h8-7h8---0-x-0-x-0-x-0-x----7h8-7h8-7h8-----|
 B|-0-x-0-x-0-x-0-x----------------0-x-0-x-0-x-0-x--------------------|

GtrI
C#|----------------------------------------|
G#|----------------------------------------|
 E|----------------------------------------|
 B|-0---------------5--3---------------8---|3x
F#|-0--0-3-33-22-22-5--3--3-7-77-55-55-8---|
 B|-0--0-3-33-22-22-5--3--3-7-77-55-55-8---|
       * * ** ** **       * * ** ** **
C#|-------------------------------------------|
G#|-------------------------------------------|
 E|-------------------------------------------|
 B|-3--3-777-5555-8b--7--7-101010-8888-10b+---|
F#|-------------------------------------------|
 B|-------------------------------------------|

Chorus-Do 2x

C#|-----------------------------------------------------|
G#|-----------------------------------------------------|
 E|-----------------------------------------------------|
 B|-0-0----------0-0---------0-0--------0---------------|
F#|-0-0-00-3-5---0-0-00-3-5--0-0-00-3-5-0--33-22-00-----|
 B|-0-0-00-------0-0-00------0-0-00-----0--33-22-00-----|
        **           **          **        ** ** **
C#|-----------------------------------------------------|
G#|-----------------------------------------------------|
 E|-----------------------------------------------------|
 B|-0-0----------0-0---------0-0--------0---------------|
F#|-0-0-00-3-5---0-0-00-3-5--0-0-00-3-5-0---3+-2+-5+----|
 B|-0-0-00-------0-0-00------0-0-00-----0---------------|
        **           **          **

then

GtrI
C#|-------------------------------------------------------------------|
G#|-------------------------------------------------------------------|
 E|-------------------------------------------------------------------|
 B|-0-x-0-x-0-x-0-x----------------0-x-0-x-0-x-0-x--------------------|2x
F#|-0-x-0-x-0-x-0-x--7h8-7h8-7h8---0-x-0-x-0-x-0-x----7h8-7h8-7h8-----|
 B|-0-x-0-x-0-x-0-x----------------0-x-0-x-0-x-0-x--------------------|

Do verse-
Do chorus-



C#|-------------------------------------------------------------------|
G#|-------------------------------------------------------------------|
 E|-------------------------------------------------------------------|
 B|-0-x-0-x-0-x-0-x----------------0-x-0-x-0-x-0-x--------------------|
F#|-0-x-0-x-0-x-0-x--7h8-7h8-7h8---0-x-0-x-0-x-0-x----7h8-7h8-7h8-----|
 B|-0-x-0-x-0-x-0-x----------------0-x-0-x-0-x-0-x--------------------|


C#|-------------------------------------------------------------------|
G#|-------------------------------------------------------------------|
 E|-------------------------------------------------------------------|
 B|-0-x-0-x-0-x-0-x----------------0-x-0-x-0-x-0-x------/-\-----------|2x
F#|-0-x-0-x-0-x-0-x--7h8-7h8-7h8---0-x-0-x-0-x-0-x-7h8--/-\-----------|
 B|-0-x-0-x-0-x-0-x----------------0-x-0-x-0-x-0-x------/-\-----------|

Interlude-
C#|--------------------------------------------------------------------------|
G#|--------------------------------------------------------------------------|
 E|--10101010101010-777--1313131313-777---10101010101010-777--1313131313-777-|
 B|--------------------------------------------------------------------------|
F#|--8-8-8-8-8-8-8--555--1111111111-555---8-8-8-8-8-8-8--555--1111111111-555-|
 B|--------------------------------------------------------------------------|
[ Tab from: http://www.guitaretab.com/g/greyhoundz/187021.html ]
C#|----------------------------------------------------------------------------------|
G#|----------------------------------------------------------------------------------|
 E|--10101010101010-777--1313131313-777---10101010101010-777--1313131313-------------|
 B|----------------------------------------------------------------------------------|
F#|--8-8-8-8-8-8-8--555--1111111111-555---8-8-8-8-8-8-8--555--1111111111-7h8-7h8-7h8-|
 B|----------------------------------------------------------------------------------|

Bridge-
C#|-------------------------------------------------------|
G#|-------------------------------------------------------|
 E|-------------------------------------------------------|
 B|-3-3-0-0-xx--6-6-0-0-xx----3-3-0-0-xx--6-6-0-0-xx------|2x
F#|-3-3-0-0-xx--6-6-0-0-xx----3-3-0-0-xx--6-6-0-0-xx------|
 B|-3-3-0-0-xx--6-6-0-0-xx----3-3-0-0-xx--6-6-0-0-xx------|


C#|-----------------------------------------------------------------------|
G#|-----------------------------------------------------------------------|
 E|-----------------------------------------------------------------------|
 B|-----------------------------------------------------------------------|
F#|-0-3333333-00000000-6666666-00000000-3333333-00000000-6666666-00000000-|
 B|-0-3333333-00000000-6666666-00000000-3333333-00000000-6666666-00000000-|
    * ******* ******** ******* ******** ******* ******** ******* ********

C#|---------------------------------------|
G#|---------------------------------------|
 E|---------------------------------------|
 B|---------------------------------------|
F#|-0-3333333-00000000-6666666-00000000---|
 B|-0-3333333-00000000-6666666-00000000---|
    * ******* ******** ******* ********

C#|--------------------------------------------------------|
G#|--------------------------------------------------------|
 E|--------------------------------------------------------|
 B|---------0-0------------------------------------0-------|
F#|-3333333-0-0--3-2-0--3-2-0--3-0--4-5-4-2-4--3-2-0-------|
 B|-3333333-0-0--3-2-0--3-2-0--3-0-------------3-2-0-------|
    *******      * * *  * * *  * *  * * * * *  * * 
then Do Verse-


Do Chorus-

add
-----------------|
-----------------|
-----------------|
-0-0-0-0-0-0-0-/-|
-0-0-0-0-0-0-0-/-|
-0-0-0-0-0-0-0-/-|

then

C#|-------------------------------------------------------------------|
G#|-------------------------------------------------------------------|
 E|-------------------------------------------------------------------|
 B|-0-x-0-x-0-x-0-x----------------0-x-0-x-0-x-0-x--------------------|2x
F#|-0-x-0-x-0-x-0-x--7h8-7h8-7h8---0-x-0-x-0-x-0-x----7h8-7h8-7h8-----|
 B|-0-x-0-x-0-x-0-x----------------0-x-0-x-0-x-0-x--------------------|


C#|-----------------------------------------------------------------------------|
G#|-----------------------------------------------------------------------------|
 E|-----------------------------------------------------------------------------|
 B|------------------------------------------------------------------------0----|
F#|-3-2-0--3-2-0--3-0--4-5-4-2-4--3-2-0--3-2-0--3-2-0--3-0--4-5-4-2-4--3-2-0----|
 B|-3-2-0--3-2-0--3-0-------------3-2-0--3-2-0--3-2-0--3-0-------------3-2-0----|
    * * *  * * *  * *  * * * * *  * * *  * * *  * * *  * *  * * * * *  * *


Lyrics
Here's what is waiting fine
Enough of the nights
We need the cushion
from the height
How high we've fallen
from last night
Trying to make it right

Turn my life
So get rid of those sweat
Is on your eyes
We need a room
Much brighter tonight
See how much you've wasted us
So just now is this time

Chorus:
You're doomed!
Do you shoot to kill?
Do you shoot to kill?
Uh what?
Now Shoot!
(Repeat 3x)
Do you shoot to kill?
Do you shoot to kill?
Uh what?
Attention!
I'll let your worn be.

We die for the drama
That abuses the most
So reap this pyro piece
Of space of peace and quiet
That I have hope for
I hope

Make it an enter for two
Into what its time to us to be
High low
Shoot back say hi
How can you miss your mark
I'm only an inch wide

(Repeat Chorus)


Let it bleed!
Let it bleed!

Sheds the name
Bring out the smoke
Sheds the kill
Bring out the swing
(Repeat 2x)

Sing me a song of resolution
Stop hanging in the news
I'd like to move a lot
And serenade you

Don't just hang in
Coz it makes you feel good
We'll make up much this ambiguous
This is our saga
This is our circus

(Repeat Chorus)


Related for Shoot To Kill tab
Advertisement will be closed in 10 seconds