Song name
# A B C D E F G H I J K L M N O P Q R S T U V W X Y Z

Greyhoundz - Shoot To Kill tab

Hindi KO lam kung tama To mahlig kasi sa PEDAL Tone G-Houndz kaya mahirap At
kadalasan Iba tuning Nila.. nalala Ko TAPE palang Nuoon ng Bumili ako ng ALbum nla
at napanuod ko SA NU Rock award galing kahit sa Live act.. Rok ON \m/

Drop :D

IntRo:

e|---------------------------------------------------------------------------|
B|---------------------------------------------------------------------------|
G|---------------------------------------------------------------------------|4x
D|--0-0-0--------------------------------------------------------------------|
A|--0-0-0-4-h-5--------------------------------------------------------------|
D|--0-0-0--------------------------------------------------------------------|

Verses

e|---------------------------------------|     |- ------------------------------------------|
B|---------------------------------------|     |--------------------------------------------|
G|---------------------------------------|3x   |--------------------------------------------|
D|--00-3-22--55-------00--4--22--77------|then |--------------------------------------------|
A|--00-3-22--55-------00--4--22--77------|>>>> |----8-77---10-10-------9---77--12-12--------|
D|--00-3-22--55-------00--4--22--77------|     |-00-----------------00----------------------|

Chorus

e|----------------------------------------------------------------------------------|
B|----------------------------------------------------------------------------------|
G|----------------------------------------------------------------------------------|
D|--------4---------4--------------4-----------------4-----------4----------------5-|
A|----4h5-4-----4h5-4-----55-44-55---------------4h5-4-------4h5-4-----55--44--55---|
D|-00-------00-------------------------------00-----------00------------------------|


Adliv

e|---------------------------------------------------------------------------|
B|---------------------------------------------------------------------------|
G|-------77---555--------99---777--------------------------------------------|4x
D|---------------------------------------------------------------------------|
A|-------55---333--------77---999--------------------------------------------|
D|-12\-----------------------------------------------------------------------|

Bridge
e|------------------------------------------------------------------------------------|
B|------------------------------------------------------------------------------------|
G|------------------------------------------------------------------------------------|
D|------------3-2--00-h-00-----5-4---00-h-00-------3-2---00-h-00-------5-4---00-h-00--|
A|-----4h5----3-2--00-h-00-----5-4---00-h-00-------3-2---00-h-00-------5-4---00-h-00--|
E|--00--------3-2--00-h-00-----5-4---00-h-00-------3-2---00-h-00-------5-4---00-h-00--|

SheD my namee...........
BRing out the smoke...
Shedes  the Kill .....
BRing Out the swing ....

e|---------------------------------------------------------------------------|
B|---------------------------------------------------------------------------|
G|---------------------------------------------------------------------------|3x
D|---00-33-22-33-----00-55-44-55---------------------------------------------|
A|---00-33-22-33-----00-55-44-55---------------------------------------------|
D|---00-33-22-33-----00-55-44-55---------------------------------------------|


Ahahaha.....hahaha...
ahahaha.....hahaha.....
Tap to rate this tab
 
# A B C D E F G H I J K L M N O P Q R S T U V W X Y Z