Song name
# A B C D E F G H I J K L M N O P Q R S T U V W X Y Z

Greyson Chance - Waiting Outside The Lines tab

Waiting Outside The by Greyson Chance.

Capo on the first fret.
Standard tuning.


Repeat this for the whole song.

    C                                               Em/C
e|--------------0------------------------0-----------------------0----------|
B|--1-----1-----------1------1-----1-----------1-----1------1-----------1---|
G|-----0-----------------0------0-----------------2------0----------------0-|
D|--------------------------------------------------------------------------|
A|--3--------3-----3---------3--------3-----3--------2--------2-----2-------|
E|--------------------------------------------------------------------------|

                              Am
e|--------------0-------------------------0-----------------------0---------|
B|--1-----1-----------1-------1-----1-----------1-----1-----1----------1----|
G|-----0-----------------0-------2-----------------2-----2----------------2-|
D|--------------------------------------------------------------------------|
A|--2--------2-----2----------0--------0-----0--------0--------0-----0------|
E|--------------------------------------------------------------------------|

    F
e|--------------0-------------------------0-----------|
B|--1-----1-----------1-------1-----1-----------1-----|
G|-----2-----------------2-------2-----------------2--|
D|----------------------------------------------------|
A|--3--------3-----3----------3--------3-----3--------|
E|----------------------------------------------------|
Tap to rate this tab
# A B C D E F G H I J K L M N O P Q R S T U V W X Y Z