Song name
# A B C D E F G H I J K L M N O P Q R S T U V W X Y Z

Greyson Chance - Sunshine And City Lights tab

This will be Sunshine and City Lights Tabs and Chords.

First: The tab includes the Intro

STANDARD TUNING. NO CAPO.
The tab will be easier if your fingers is on C chord and on the "01" part,shift to 
Am. Just suggesting. Cause that's what I use. :)
Enjoy!

INTRO:

e|-----0--0-0-----------------------0---0--0----1-0-|
B|-------------3--3-3--1--1-1--0-01--01--0--01------|
G|-------0-0--0--0-0--0--0-0--0-0--2---2--2---2-----|
D|--------------------------------------------------|
A|---3----------------------------------------------|
E|--------------------------------------------------|

e|-----0--0-0-----------------------0---0--0----1-0-|
B|-------------3--3-3--1--1-1--0-01--01--0--01------|
G|-------0-0--0--0-0--0--0-0--0-0--2---2--2---2-----|
D|--------------------------------------------------|
A|---3----------------------------------------------|
E|--------------------------------------------------|


Verse: C G F F (4x) (It's taking us downtown..)

Pre-Chorus: G Am F F(once) (sta-a-a-a-a-a-ay..)

Chorus: C G Am F (What you need to know..)
        G Am F F (And sunshine and city lights will guide you home .. )

Verse 2: C G F F (4x) (Now we're stuck in midtown..)

Pre-Chorus: G Am F F(once) (sta-a-a-a-a-a-ay..)

Chorus: SAME

Ending Chorus: C G F F(once)


PLEASE RATE AND I HOPE YOU ENJOY!! :))
Follow on Twitter: @theguyEnchancer
Tap to rate this tab
 
# A B C D E F G H I J K L M N O P Q R S T U V W X Y Z