Song name
# A B C D E F G H I J K L M N O P Q R S T U V W X Y Z

Greyson Chance - California Sky tab

***So guys, this is my California Sky Tab. Unfortunately, this tab has no bridge so, I'm 
making an advance sorry for that.
Anyway, this tab shows intro-verses nand the chorus.
So I hope you learn from this and it's quite easy :)***

PS: if you see that I chose "whole song", but really, it has no bridge and there's no 
option for that so.. yeah. nvm this PS lol

OKAY! So..
Reminders:

No capo.
Standard Tuning.
Enjoy (:
*
*
*
*
*
*

Intro and Verses (same patterns)

e|--------------------------------------------------|
B|--------------------------------------------------|
G|----0-0-0-0-0--0---0-0-0-0-0----------------------|
D|--------------------------------------------------|
A|---8-7-5-3-2--3---8-7-5-3-2-----------------------|
E|--------------------------------------------------|

Refrain: (3x)
e|--------------------------------------------------|
B|--------------------------------------------------|
G|----0-0-0-0-0--0----------------------------------|
D|--------------------------------------------------|
A|---8-7-5-3-2--3-----------------------------------|
E|--------------------------------------------------|
then once
e|--------------------------------------------------|
B|--------------------------------------------------|
G|----0-0-0-0-0-------------------------------------|
D|--------------------------------------------------|
A|---8-7-5-3-2--------------------------------------|
E|--------------------------------------------------|

Chorus:
e|--------------------------------------------------|
B|--------------------------------------------------|
G|----0-0-0-0-0--0---0-0-0-0-0----------------------|
D|--------------------------------------------------|
A|---8-7-5-3-2--3---8-7-5-3-2-0---------------------|
E|--------------------------------------------------|

e|--------------------------------------------------|
B|--------------------------------------------------|
G|----0-0-0-0-0--0---0-0-0-0-0----------------------|
D|--------------------------------------------------|
A|---8-7-5-3-2--3---8-7-5-3-2-----------------------|
E|--------------------------------------------------|

e|--------------------------------------------------|
B|--------------------------------------------------|
G|----0-0-0-0-0--0---0-0-0-0-0----------------------|
D|--------------------------------------------------|
A|---8-7-5-3-2--3---8-7-5-3-2-----------------------|
E|--------------------------------------------------|


After that, can repeat to verse again.
Please Rate :)
Have a good day ^^
Tap to rate this tab
 
# A B C D E F G H I J K L M N O P Q R S T U V W X Y Z