Song name
# A B C D E F G H I J K L M N O P Q R S T U V W X Y Z

Grieg Edvard - Bergakungens Sal tab

e: Mon, 27 Apr 1998 17:52:14 +0200
From: Oscar 
Subject: g/grieg_edvard/bergakungens_sal.crd

Bergakungens sal
Edvard Grieg
First riff:
D-------0-2---2-1---1-0---0-
A-0-2-3-----3-----2-----1---
D-------0-2---2-1---1-0-----
A-0-2-3-----3-----2---------
Later:
D-------0-2---2-1---1-0---0-
A-0-2-3-----3-----2-----1---
D-------0-2---2-5-3-0---0-3-
A-0-2-3-----3---------1-----
The second riff is later played higher.
One of my friends say that the second riff is
played like this, but I don't think it's right:
D-------0-2---2-1---1-0---0-
A-0-2-3-----3-----2-----1---
G---------------2-0-------0-
D-------0-2---2-----2---2---
A-0-2-3-----3---------3-----

Oscar Widegren
(oscar.widegren@nykoping.com)
Tap to rate this tab
 
# A B C D E F G H I J K L M N O P Q R S T U V W X Y Z