Song name
# A B C D E F G H I J K L M N O P Q R S T U V W X Y Z

Grieg - Hall Of The Mountain King tab

#----------------------------------PLEASE NOTE---------------------------------#
#This file is the author's own work and represents their interpretation of the #
#song. You may only use this file for private study, scholarship, or research. #
#------------------------------------------------------------------------------##


Gtr I (E A D G B E) - 'Untitled'

  Q=98
 4/4
  Gtr I
  E E E E E E q    E E q E E q    E E E E E E E E   E E E E h
|----------------|--------------|-----------------|--------------|
|----------------|--------------|-----------------|--------------|
|----------------|--------------|---------------4-|-2-------2----|
|-------2-4---4--|-3---3-2---2--|-------2-4---4---|---4---4------|
|-2-4-5-----5----|---4-----3----|-2-4-5-----5-----|-----5--------|
|----------------|--------------|-----------------|--------------|


  Q=100                            Q=102
  E E E E E E q    E E q  E E q    E E E E E E E E   E E E E h
|----------------|---------------|-----------------|--------------|
|----------------|---------------|-----------------|--------------|
|----------------|---------------|---------------4-|-2-------2----|
|-------2-4---4--|-3---3--2---2--|-------2-4---4---|---4---4------|
|-2-4-5-----5----|---4------3----|-2-4-5-----5-----|-----5--------|
|----------------|---------------|-----------------|--------------|


  Q=104
  E E E E E E q    E E q  E E q    E E E E E E q    E E Q  h
|----------------|---------------|----------------|-------------|
|----------------|---------------|----------------|-------------|
|-----3-4-6-3-3--|-7-3-3--6-3-3--|-----3-4-6-3-3--|-7-3-3--6----|
|-4-6------------|---------------|-4-6------------|-------------|
|----------------|---------------|----------------|-------------|
|----------------|---------------|----------------|-------------|


  Q=106
  E E E E E E q    E E q  E E q    E E E E E E q    E E q  H
|----------------|---------------|----------------|-------------|
|----------------|---------------|----------------|-------------|
|-----3-4-6-3-6--|-7-3-7--6-3-6--|-----3-4-6-3-6--|-7-3-7--6----|
|-4-6------------|---------------|-4-6------------|-------------|
|----------------|---------------|----------------|-------------|
|----------------|---------------|----------------|-------------|


  Q=108
  E E E E E E Q.    E E Q.  E E Q.    E E E E E E E E   E E E E H.
|-----------------|-----------------|-----------------|---------------|
|-----------------|-----------------|-----------------|---------------|
|-----------------|-----------------|---------------4-|-2-------2-----|
|-------2-4---4---|-3---3---2---2---|-------2-4---4---|---4---4-------|
|-2-4-5-----5-----|---4-------3-----|-2-4-5-----5-----|-----5---------|
|-----------------|-----------------|-----------------|---------------|


  Q=110                               Q=112
  E E E E E E Q.    E E Q.  E E Q.    E E E E E E E E    E E E E H.
|-----------------|-----------------|-----------------|---------------|
|-----------------|-----------------|-----------------|---------------|
|-----------------|-----------------|---------------4-|--------4------|
|-------2-4---4---|-3---3---2---2---|-------2-4---4---|--4---4--------|
|-2-4-5-----5-----|---4-------3-----|-2-4-5-----5-----|----5-----2----|
|-----------------|-----------------|-----------------|---------------|


  Q=114            Q=116             Q=118             Q=120
  E E E E E E Q.   E E Q.  E E Q.    E E E E E E E E   E E E E H.
|----------------|-----------------|---------------7-|-5-------5-----|
|-------5-7---7--|-6---6---5---5---|-------5-7---7---|---7---7-------|
|-4-6-7-----7----|---6-------5-----|-4-6-7-----7-----|-----7---------|
|----------------|-----------------|-----------------|---------------|
|----------------|-----------------|-----------------|---------------|
|----------------|-----------------|-----------------|---------------|


  Q=122             Q=124             Q=126             Q=128
  E E E E E E Q.    E E Q.  E E Q.    E E E E E E E E   E E E E H.
|-----------------|-----------------|---------------7-|-5-------5-----|
|-------5-7---7---|-6---6---5---5---|-------5-7---7---|---7---7-------|
|-4-6-7-----7-----|---6-------5-----|-4-6-7-----7-----|-----7---------|
|-----------------|-----------------|-----------------|---------------|
|-----------------|-----------------|-----------------|---------------|
|-----------------|-----------------|-----------------|---------------|


  Q=130                   Q=132
   E  E  E  E  E  E  Q     E  E  Q   E  E  Q
|-----------------------|---------------------|
|-------11-12-14-11-14--|-15-11-15--14-11-14--|
|-11-13-----------------|---------------------|
|-----------------------|---------------------|
|-----------------------|---------------------|
|-----------------------|---------------------|


  Q=126                   Q=128
   E  E  E  E  E  E  Q     E  E  Q   H
|-----------------------|-----------------|
|-------11-12-14-11-14--|-15-11-15--14----|
|-11-13-----------------|-----------------|
|-----------------------|-----------------|
|-----------------------|-----------------|
|-----------------------|-----------------|


  Q=130                   Q=132
   E  E  E  E  E  E  Q     E  E  Q   E  E  Q
|-----------------------|---------------------|
|-------11-12-14-11-14--|-15-11-15--14-11-14--|
|-11-13-----------------|---------------------|
|-----------------------|---------------------|
|-----------------------|---------------------|
|-----------------------|---------------------|


  Q=134                   Q=136
   E  E  E  E  E  E  Q     E  E  Q   H
|-----------------------|-----------------|
|-------11-12-14-11-14--|-15-11-15--14----|
|-11-13-----------------|-----------------|
|-----------------------|-----------------|
|-----------------------|-----------------|
|-----------------------|-----------------|


  Q=138   Q=140    Q=142  Q=144    Q=146   Q=148     Q=150   Q=152
  E E E E E E Q    E E Q  E E Q    E E E E E E E E   E E E E H
|----------------|---------------|-----------------|--------------|
|----------------|---------------|-----------------|--------------|
|----------------|---------------|---------------4-|-2-------2----|
|-------2-4---4--|-3---3--2---2--|-------2-4---4---|---4---4------|
|-2-4-5-----5----|---4------3----|-2-4-5-----5-----|-----5--------|
|----------------|---------------|-----------------|--------------|


  Q=154   Q=156    Q=158  Q=160    Q=164   Q=168     Q=172   Q=176
  E E E E E E Q    E E Q  E E Q    E E E E E E E E   E E E E H
|----------------|---------------|-----------------|--------------|
|----------------|---------------|-----------------|--------------|
|----------------|---------------|---------------4-|-------4------|
|-------2-4---4--|-3---3--2---2--|-------2-4---4---|-4---4--------|
|-2-4-5-----5----|---4------3----|-2-4-5-----5-----|---5-----2----|
|----------------|---------------|-----------------|--------------|


  Q=180                            Q=182
  E E E E E E Q    E E Q  E E Q    E E E E E E E E   E E E E H
|----------------|---------------|---------------7-|-5-------5----|
|-------5-7---7--|-6---6--5---5--|-------5-7---7---|---7---7------|
|-4-6-7-----7----|---6------5----|-4-6-7-----7-----|-----7--------|
|----------------|---------------|-----------------|--------------|
|----------------|---------------|-----------------|--------------|
|----------------|---------------|-----------------|--------------|


  Q=184                            Q=186
  E E E E E E Q    E E Q  E E Q    E E E E E E E E   E E E E H
|----------------|---------------|---------------7-|-5-------5----|
|-------5-7---7--|-6---6--5---5--|-------5-7---7---|---7---7------|
|-4-6-7-----7----|---6------5----|-4-6-7-----7-----|-----7--------|
|----------------|---------------|-----------------|--------------|
|----------------|---------------|-----------------|--------------|
|----------------|---------------|-----------------|--------------|


  Q=188
   E  E  E  E  E  E  Q     E  E  Q   E  E  Q
|-----------------------|---------------------|
|-------11-12-14-11-14--|-15-11-15--14-11-14--|
|-11-13-----------------|---------------------|
|-----------------------|---------------------|
|-----------------------|---------------------|
|-----------------------|---------------------|


  Q=190
   E  E  E  E  E  E  Q     E  E  Q   H
|-----------------------|-----------------|
|-------11-12-14-11-14--|-15-11-15--14----|
|-11-13-----------------|-----------------|
|-----------------------|-----------------|
|-----------------------|-----------------|
|-----------------------|-----------------|


  Q=192
   E  E  E  E  E  E  Q     E  E  Q   E  E  Q
|-----------------------|---------------------|
|-------11-12-14-11-14--|-16-11-16--14-11-14--|
|-11-13-----------------|---------------------|
|-----------------------|---------------------|
|-----------------------|---------------------|
|-----------------------|---------------------|


  Q=194
   E  E  E  E  E  E  Q     E  E  Q   H
|-----------------------|-----------------|
|-------11-12-14-11-14--|-16-11-16--14----|
|-11-13-----------------|-----------------|
|-----------------------|-----------------|
|-----------------------|-----------------|
|-----------------------|-----------------|


  Q=194            Q=196           Q=198             Q=200
  E E E E E E Q    E E Q  E E Q    E E E E E E E E   E E E E H
|----------------|---------------|---------------7-|-5-------5----|
|-------5-7---7--|-6---6--5---5--|-------5-7---7---|---7---7------|
|-4-6-7-----7----|---6------5----|-4-6-7-----7-----|-----7--------|
|----------------|---------------|-----------------|--------------|
|----------------|---------------|-----------------|--------------|
|----------------|---------------|-----------------|--------------|


  Q=202            Q=204           Q=206             Q=208
  E E E E E E Q    E E Q  E E Q    E E E E E E E E    E E E E H
|----------------|---------------|---------------7-|--------7-----|
|-------5-7---7--|-6---6--5---5--|-------5-7---7---|--7---7-------|
|-4-6-7-----7----|---6------5----|-4-6-7-----7-----|----7-----4---|
|----------------|---------------|-----------------|--------------|
|----------------|---------------|-----------------|--------------|
|----------------|---------------|-----------------|--------------|


  Q=214
  Q   H.        Q   H.        E  E  E E  E  E  E  E    E  E  E  E  H
|-------------|-------------|-----------------------|-------------------|
|-------------|-------------|--------------------12-|-11----11-14-12----|
|----10-------|----10-------|---------9-11----11----|----11-------------|
|-----9-------|-----9-------|-9-11-12------12-------|-------------------|
|-----8-------|-----8-------|-----------------------|-------------------|
|-7-----------|-7-----------|-----------------------|-------------------|


  Q   H.        Q   H.        E  E  E E  E  E  E  E    E  E  E  E  H
|-------------|-------------|-----------------------|-------------------|
|-------------|-------------|--------------------12-|-11----11-14-12----|
|----10-------|----10-------|---------9-11----11----|----11-------------|
|-----9-------|-----9-------|-9-11-12------12-------|-------------------|
|-----8-------|-----8-------|-----------------------|-------------------|
|-7-----------|-7-----------|-----------------------|-------------------|


                               <
  Q   H.        Q   H.         Q   Q   Q   Q
|-------------|-------------|-----------------|
|-------------|-------------|-----------------|
|----10-------|----10-------|-10--10--10--10--|
|-----9-------|-----9-------|--9---9---9---9--|
|-----8-------|-----8-------|-----------------|
|-7-----------|-7-----------|--7---7---7---7--|


   Q   Q   Q   Q    W        Q  h.
|-----------------|----|-------------|
|-----------------|----|-------------|
|-10--10--10--10--|----|-------11----|
|--9---9---9---9--|----|--------9----|
|-----------------|----|-------------|
|--7---7---7---7--|----|-----7-------|


Duration Legend
---------------
W - whole; H - half; Q - quarter; E - 8th; S - 16th; T - 32nd; X - 64th; a - acciaccatura
+ - note tied to previous; . - note dotted; .. - note double dotted
Uncapitalized letters represent notes that are staccato (1/2 duration)
Irregular groupings are notated above the duration line
Duration letters will always appear directly above the note/fret number it represents the
duration for.  Duration letters with no fret number below them represent rests.  Multi-
bar rests are notated in the form Wxn, where n is the number of bars to rest for.  Low
melody durations appear below the staff

Tablature Legend
----------------
 h   - hammer-on
 p   - pull-off
 b   - bend
 pb  - pre-bend
 r   - bend release (if no number after the r, then release immediately)
 /\  - slide into or out of (from/to "nowhere")
 s   - legato slide
 S   - shift slide
  - natural harmonic
[n]  - artificial harmonic
n(n) - tapped harmonic
 ~   - vibrato
 tr  - trill
 T   - tap
 TP  - trem. picking
 PM  - palm muting
\n/  - tremolo bar dip; n = amount to dip
 \n  - tremolo bar down
 n/  - tremolo bar up
/n\  - tremolo bar inverted dip
 =   - hold bend; also acts as connecting device for hammers/pulls
 <>  - volume swell (louder/softer)
 x   - on rhythm slash represents muted slash
 o   - on rhythm slash represents single note slash

Misc Legend
-----------
 |  - bar
||  - double bar
||o - repeat start
o|| - repeat end
*|  - double bar (ending)
 :  - bar (freetime)
 $  - Segno
 &  - Coda
Tempo markers -  = BPM(8/16=s8/s16), where s8 = swing 8ths, s16 = swing 16ths


***************************************************************************************
* Generated using Power Tab Editor by Brad Larsen - http://powertab.guitarnetwork.org *
***************************************************************************************
Tap to rate this tab
 
# A B C D E F G H I J K L M N O P Q R S T U V W X Y Z