Song name
# A B C D E F G H I J K L M N O P Q R S T U V W X Y Z

Grieg - In The Hall Of The Mountain King tab

Tabbed by: Tyerr
Email: Robin1994_@hotmail.com

Tuning: Standard

I Think its 100% Correct! Mail me if you find something wrong with it or leave a comment :)

[2 Times]
e|-----------------------------------------------------10--8----------8--|
B|-----6-8--10----10--9---9--8---8-------6-8--10----10-------10----10----|
G|-7-9---------10-------9------8-----7-9---------10-------------10-------|
D|-----------------------------------------------------------------------|
A|-----------------------------------------------------------------------|
E|-----------------------------------------------------------------------|

[2 Times]
e|-------9-10--12---12--13----13--12----12-------9-10--12----12--13----13-12-|
B|-10-12---------14--------14--------14-----10-12---------14--------14-------|
G|---------------------------------------------------------------------------|
D|---------------------------------------------------------------------------|
A|---------------------------------------------------------------------------|
E|---------------------------------------------------------------------------|

You Play it Over and over again through the whole song! It Should Be Played fast. Though 
can play it slow but it doesnt sound as good!
Tap to rate this tab
# A B C D E F G H I J K L M N O P Q R S T U V W X Y Z