Song name
# A B C D E F G H I J K L M N O P Q R S T U V W X Y Z

Grieg - In The Hall Of The Moutain King tab

In the Hall of The Moutain King (for bass or guitar)
Eigth note = one - inbetween two notes
Quarter Note = three - inbetween two ntoes

Originally by Grieg
Transposed from piano by Smallleprechaun

g|--------------------------------------------------------------|
d|-----------------------------------------------7-5--------5---|
a|-0-2-3-5-7---7---6---6---5---5---0-2-3-5-7---7------7---7-----|
e|-----------8-------7-------6---------------8----------8-------|

g|----------------------------------------------------------------------|
d|-2-4-6-7-9----9---10----10---9----9---2-4-6-7-9----9---10----10---9---|
a|-----------10--------11--------10---------------10--------11----------|
e|----------------------------------------------------------------------|

g|-2-4-5-7-9----9---8---8---7---7---2-4-5-7-9----9-14-----9----9------|
d|-----------10-------9-------8---------------10-------12---10---12---|
a|--------------------------------------------------------------------|
e|--------------------------------------------------------------------|

g|-2-4-5-7-9----9---8---8---7----7---2-4-5-7-9----9-14-9----9-14-2---|
d|-----------10-------9-------8----------------10--------10----------|
a|-------------------------------------------------------------------|
e|-------------------------------------------------------------------|

Enjoy, I think it's mostly right...
Tap to rate this tab
 
# A B C D E F G H I J K L M N O P Q R S T U V W X Y Z