Song name
# A B C D E F G H I J K L M N O P Q R S T U V W X Y Z

Griffin House - Why Dont You Believe tab

-------------------------------------------------------------------------------
                     WHY DON'T YOU BELIEVE - Griffin House
-------------------------------------------------------------------------------
Tabbed by: Sean
Email: zodiacthesis@gmail.com

Tuning: Standard

Hey everybody.  This is a great song from Griffin House. I couldn't find a
tab of this anywhere on the internet so I decided to do it myself.  This is
my first tab, but I think it's pretty accurate.  The rhythm is simplified, 
listen to the song for the correct rhythm.

Make sure to put a capo at the 5th fret, and gently strum with your 
thumb/fingers.

Enjoy.

--------------

Verse (capo 5th fret)

e|--------------------------0-0-0-0-0-0-0-------3-3--------------------------|
B|--1---1-1-3-------------3-3-1-1-1-1-1-1-1-----3-3-3------------------------|
G|--0---0-0-0---0---0-0-0-0-0-0h2-2-2h0-0-0h2p0-0-0-0------------------------|
D|--2---0-2-2---2---2-2-2-2-2-3-3-3-3-3-3-3-----0-0-0------------------------|
A|--3---3-3-3---2---2-0h2-2-2-0-0-0-0-0-0-0-----2-2-2------------------------|
E|--------------0---0-0-0-0-0-------------------3-3-3------------------------|

Chorus (capo 5th fret)

e|--0-0-0--------------------------------------------------------------------|
B|--1-1-1--1-1-1--3-3-3-3-3-3------------------------------------------------|
G|--2-2-2--0-0-0--0-0-0-0-0-0------------------------------------------------|
D|--3-3-3--2-2-2--0-0-0-0-0-0------------------------------------------------|
A|--0-0-0--3-3-3--2-2-2-2-2-2------------------------------------------------|
E|----------------3-3-3-3-3-3------------------------------------------------|

| /  slide up
| \  slide down
| h  hammer-on
| p  pull-off
| ~  vibrato
| +  harmonic
| x  Mute note
===============================================================================
Tap to rate this tab
# A B C D E F G H I J K L M N O P Q R S T U V W X Y Z