Song name
# A B C D E F G H I J K L M N O P Q R S T U V W X Y Z

Grim Homicide - Death Embraced tab

Hi,

This is the tab for Grim Homicide's " Death, Embraced! " it's pretty easy so yea.

Tuning is Standard just one step down so its (starting from the top down) D C G F A D

 Palm mute = .

 Main Riff - first part

 |---------------------------------------------------------|
 |---------------------------------------------------------|
 |---------------------------------------------------------|
 |---------------------------------------------------------|
 |--7------7------7------8-8-8-7------7-----77776666-------|X4 Times
 |--5-000--5-000--5-000--6-6-6-5-000--5-000--|(Second guitar plays X 3)
      ...    ...    ...          ...    ...

 Main Riff - second part

 |---------------------------------------------------------|
 |---------------------------------------------------------|
 |---------------------------------------------------------|
 |---------------------------------------------------------|
 |--4------4------4------5-5-5-4------4-----44443333-------|
 |--2-222-2-222-2-222-3-3-3-2-222-2-222-------------|X4 Times (Both guitars)
    let ring

 Solo - First part
 |-------------------------------------------------------------------------|
 |--------------------------------------9---------------------------11-9---|
 |---11-10-----9--------------11-10-----9----11-10----9-----------9------12|
 |-9--------12---11-10-12--9--------12-----9-------12---11-10-12-----------|
 |-------------------------------------------------------------------------|
 |-----------------------------------------------------------------|X2 Times

 Solo - Last part
 |------------------------------------------------|
 |------------------------------------------------|
 |-12-11-8-7--12-11-8--12-11-8-7--12-11-8---------|
 |------------------------------------------------|
 |------------------------------------------------|
 |------------------------------------------------|


 Main Riff - first part

 |---------------------------------------------------------|
 |---------------------------------------------------------|
 |---------------------------------------------------------|
 |---------------------------------------------------------|
 |--7------7------7------8-8-8-7------7-----77776666-------|X4 Times
 |--5-000--5-000--5-000--6-6-6-5-000--5-000--|(Second guitar plays X 3)
      ...    ...    ...          ...    ...

 Main Riff - second part

 |---------------------------------------------------------|
 |---------------------------------------------------------|
 |---------------------------------------------------------|
 |---------------------------------------------------------|
 |--4------4------4------5-5-5-4------4-----44443333-------|
 |--2-222-2-222-2-222-3-3-3-2-222-2-222-------------|X4 Times (Both guitars)

 Bridge
 |---------------------------------------------------------|
 |---------------------------------------------------------|
 |---------------------------------------------------------|
 |---------------------------------------------------------|
 |--2---2--3-33--3-33--2---2--3-33--6-66-------------------|
 |--0---0--1-11--1-11--0---0--1-11--4-44-------------------| 
             ..    ..           ..    ..
 Interlude - first part
 |---------------------------------------------------------------|
 |---------------------------------------------------------------|
 |---------------------------------------------------------------|
 |---------------------------------------------------------------|
 |-------7777777777-88-77-66-222222-333333-22-33-55-77-----------|
 |-5555----------------------------------------------------------| 

 Interlude - Second part
 |---------------------------------------------------------------|
 |---------------------------------------------------------------|
 |---------------------------------------------------------------|
 |---------------------------------------------------------------|
 |------7777777777-88-77-66-222222-333333-22-33--6-7-----|X2 Times 
 |-5555------------------------------------------4-5|(Second guitar playsX1)

 End Riff - First part
 |---------------------------------------------------------|
 |---------------------------------------------------------|
 |---------------------------------------------------------|
 |--7-77-8-77-77-8-7-6--2-22-3-22-22-2-3-5-----------------|
 |--7-77-8-77-77-8-7-6--2-22-3-22-22-2-3-5-----------------|
 |---------------------------------------------------------| X 4 Times

 End Riff - Second part
 |---------------------------------------------------------|
 |---------------------------------------------------------|
 |---------------------------------------------------------|
 |--7-77-8-77-77-8-7-6--2-22-3-22-22-2-3-5-----------------|
 |--7-77-8-77-77-8-7-6--2-22-3-22-22-2-3-5-----------------|
 |---------------------------------------------------------| X 2 Times
      ..   .              ..   .     

 Please follow the links below and show your support! Thanks!

 www.facebook.com/pages/Grim-Homicide/153276661378838

 www.reverbnation.com/grimhomicide
Tap to rate this tab
# A B C D E F G H I J K L M N O P Q R S T U V W X Y Z