Song name
# A B C D E F G H I J K L M N O P Q R S T U V W X Y Z

Grim Reaper - Final Scream tab

Riff 1   4x      Last time:(switch between pickups, then strum
								    behind nut)
e|--------------|------------------------------------------------------|
B|--------------|------------------------------------------------------|
G|--------------|------------------------------------------------------|
D|-4--3--2------|--9---------------------------------------------------|
A|-2--1--0--2---|--7---------------------------------------------------|
E|----------0---|--0---------------------------------------------------|

Riff 2   6x
  p.m...................       ....................
e|---------------------------------------------------------------------|
B|---------------------------------------------------------------------|
G|---------------------------------------------------------------------|
D|---------------------------------------------------7--5--------------|
A|-----------------------7--5-----------------------/5--3--------------|
E|-0-2-3-0-2-3-0-2-3-0-2/5--3--0-2-3-0-2-3-0-2-3-0-2-------------------|

Riff 3   2x
             p.m..               ...............  then
e|-----------------------------------------------|---------------------|
B|-----------------8-----------------------------|---------------------|
G|-----------------9-----------------------------|---------------------|
D|-5---5---9-------9--5---5---7------------------|-9-------------------|
A|-7---7---7-------7--7---7---9------------------|-9-------------------|
E|-5---5-----0-0-0----5---5---7--5-7-5-7-5-7-5-7-|-7-------------------|

Riff 2   6x

Riff 3   2x

Riff 4   8x

e|---------------------------------------------------------------------|
B|---------------------------------------------------------------------|
G|---------------------------------------------------------------------|
D|-9-----7/5-----------------------------------------------------------|
A|-7-----5/3-----------------------------------------------------------|
E|---0-0---------------------------------------------------------------|

Riff 3   2x

solo (Riff 2 as rhythm 6x)

Riff 3   2x

End riff (Riff 4 as rhythm 8x)

e|-----------------------------------------------------------------------|
B|-----------------------------------------------------------------------|
G|-7~-9~-11~-12~-14~-16~-17~-19~--19-19----------------------------------|
D|-----------------------------------------------------------------------|
A|-----------------------------------------------------------------------|
E|-----------------------------------------------------------------------|
Tap to rate this tab
# A B C D E F G H I J K L M N O P Q R S T U V W X Y Z