Guitaretab - guitar tabs
Song name
# A B C D E F G H I J K L M N O P Q R S T U V W X Y Z

Grim Skunk - Roof Top Killer tab

#----------------------------------PLEASE NOTE---------------------------------#
#This file is the author's own work and represents their interpretation of the #
#song. You may only use this file for private study, scholarship, or research. #
#------------------------------------------------------------------------------##
From: Bruno Lamoureux 

Titre:         Rooftop Killer
Groupe:        Grim Skunk
Album:         Grim Skunk
Ecrit Par:     Grim Skunk
Transcrit Par: B.Lamoureux
----------------------------------------------------------------------


p.m..............................
|----------------------------|----|-------|-----------|-----------------|
|----------------------------|----|-------|-----------|-----------------|
|----------------------------|----|-------|-----------|-----------------|
|----------------------------|----|-------|-----------|-------0---------|
|----------------------------|----|3-2-0--|-3-2-0-----|-3-2-0---3-2-0---|
|-5-5-5-5-1-1-1-1-3-3-3-3-0-0|0-3-|-----/5|-------3-/5|--------------/5-|
[ Tab from: http://www.guitaretab.com/g/grim-skunk/39243.html ]
|------------|-----------------------------------------------------------|
|------------|-----------------------------------------------------------|
|------------|-----------------------------------------------------------|
|------------|-----------------------------------------------------------|
|----2-3-2---|-----------------------------------------------------------|
|---------/5-|-----------------------------------------------------------|


pm.....    ........   ........
|------------------------------------------|------------|----------------|
|------------------------------------------|------------|----------------|
|------------------------------------------|--------10--|----------------|
|---------7----------3----------5-5-5-5--2-|-7-10-7-10--|----------------|
|---------7----------3----------5-5-5-5--2-|-7-10-7-8---|----------------|
|-5-5-5-5-5--1-1-1-1-1--3-3-3-3-3-3-3-3--0-|-5-8--5-----|----------------|


a couple of time   the end:
|------------------|--------------|--------------------------------------|
|------------------|--------------|--------------------------------------|
|------------------|--------------|--------------------------------------|
|------------------|--------5--2--|--------------------------------------|
|-7-7-7-7-7--7-7-7-|--------5--2--|--------------------------------------|
|-7-7-8-7-10-7-8-7-|--------3--0--|--------------------------------------|


Ce fichier a =82t=82 cr=82e par Tab 1.1
Related for Roof Top Killer tab
Roof Top Killer chords by Grim Skunk