Song name
# A B C D E F G H I J K L M N O P Q R S T U V W X Y Z

Grin Department - Skin tab

Intro: e-------0------|-------2-------|-----3------------0-------|
       B---------1----|-----3---3-----|--------------------0-----|
       G-----0--------|---2-----------|--------------------------|
       D---2----------|-0-------------|-----0----------2---------|
       A-3------------|---------------|---2----------2-----------|
       E--------------|---------------|-3-------2--0-------------|
              A                      D
       e-------0----------0---|--------2---0-2-|
       B---------2------2---2-|-----3----------|
       G-----2--------2-------|---2------------|
       D---2--------2---------|-0--------0-----|
       A-0--------------------|----------------|
       E----------------------|----------------|


Verse:
      C              D             G     Em
e-----0--------|-----2-------|-----3------------0-------|
B-------1------|-------3-----|--------------------0-----|
G-----0--------|---2---------|--------------------------|
D---2----------|-0-----------|-----0----------2---------|
A-3------------|-------------|---2----------2-----------|
E--------------|-------------|-3-------2--0-------------|
       Lagi    nalang tayong     nag   -      aaway

Sa walang kwentang bagay
Lahat ng tao ay pinacclosan

              A                      D              D
e-------0----------------0-----|--------2---0-2-|----2----|
B---------2------------2---2---|-----3----------|----3----|
G-----2--------------2---------|---2------------|----2----|
D---2--------------2-----------|-0--------0-----|----0----|
A-0----------------------------|----------------|----x----|
E------------------------------|----------------|----x----|
Kahit na alam niyang itoy kausap lang.

Verse 2:

      G     Em                   A           D
e-----3------------0-------|------0-----|-------2----|
B--------------------0-----|----2---2---|-----3---0--|
G--------------------------|--2---------|---2--------|
D-----0----------2---------|------------|-0----------|
A---2----------2-----------|------------|------------|
E-3-------2--0-------------|------------|------------|

Love dont you know        mahal na mahal kita
Di molang alam TL ako sayo
Sa twina haha will always love you. oh oh. will always love.

Chorus:
C                 G             A                    D
Bakit kailangan pang mang yari ang isang katulad ng ito
C                                   A
Dibat ang sabi mo ko lang ang true love mo
                     D      G-Em-A-D
Yon pala ay di totoo.


Verse 3: (itolangpo gamitin nyo hanggang matapos)
      G     Em                   A           D
e-----3------------0-------|------0-----|-------2----|
B--------------------0-----|----2---2---|-----3---0--|
G--------------------------|--2---------|---2--------|
D-----0----------2---------|------------|-0----------|
A---2----------2-----------|------------|------------|
E-3-------2--0-------------|------------|------------|

Maryon akong nalaman
Itoy tungkol sayo
Ng aking malaman
Akoy na shock sayo
Sa twina haha ah.


Long la5x long la5x long5x sorry

Repeat churos

Verse 4:
goodbye nalang sayo break nalang tayo
salamat sa mga date natin
salamat sa mga trip natin
salamat din sa mga sulat mo susunogin ko
salamat din sa nagsabi may syota kana palang iba..ah..

verse 5:
hihoo hihoo skin lagot kayo
hihoo hihoo oh mahal ang pangit mo
iderma mo mukha mo
kiskis mo sa spalto

repeat last paragraph
Tap to rate this tab
# A B C D E F G H I J K L M N O P Q R S T U V W X Y Z