Song name
# A B C D E F G H I J K L M N O P Q R S T U V W X Y Z

Grin Department - Tablahan tab

title:tablahan
artist:grin department
created:dec. 14, 2009 10:37PM
kinapa ni:don berroya
email address:donn_berroya@yahoo.com
gender:male
age:12
birthdate:april 2, 1997
school level:grade 6
mentor:ram columna
band:none(gusto ko muna po magpagaling hehe)


used chords:
   G bm  C  D
e|-3--2--0--2-|
b|-3--3--1--3-|
g|-0--4--0--2-|
d|-0--4--2--0-| 
a|-2--2--3--0-| 
e|-3-----0----|
VERSE:
   g    bm    C     D
e|---3-----3-----3-----5---|
b|-------------------------|
g|-------------------------|
d|-------------------------|
a|------2-----3-----5------|
e|-3-----------------------|
CHORUS:
   G bm  C  D        G bm C D
e|-3--2--0--2-|   e|-3-2--3-5-|
b|-3--3--1--3-|   b|-3-2--3-5-|
g|-0--4--0--2-|OR g|-3-4--5-7-|
d|-0--4--2--0-|   d|-5-4--5-7-|
a|-2--2--3--0-|   a|-5-2--3-5-|
e|-3-----0----|   e|-3--------|
     wini wini wini wini...
e|----------------------------------|
b|--12h14-12----12---b14-14---------|
g|----------13---13-----------------|
d|----------------------------------|
a|----------------------------------|
e|----------------------------------|

may part dun na may ganitong tunog
e|-------------------|
g|----16-----14~-----|
b|-------------------|
d|-------------------|
a|-------------------|
e|-------------------|

EUNG OUTRO CHORUS MAGAGAMIT NIYO EUNG CHORDS SA CHORUUS PATI EUNG MAY SECOND VOICE
NA NANA NANA NANA NANA MAGAGAMIT NIYO EUNG SA WINI WINI WINI WINI...FIRST TABBING
KO NGA PALA PO ITO..SANA IADD NIYO AKO SA FB FS AT YM..BINABATI KO NGA PAL ANG 
BARKADA KONG NAGNGAGNALANG EL HOMBRE LALO NA SI MASTER RAM..KUNG MAY MALI PO HANDA
KO PONG TANGGAPIN..SALAMAT..PWEDE RIN PO ITONG PANAMA HEHE..GRIN DEPT!!!
Tap to rate this tab
 
# A B C D E F G H I J K L M N O P Q R S T U V W X Y Z