Song name
# A B C D E F G H I J K L M N O P Q R S T U V W X Y Z

Grin Department - Buy One Take One tab

   -- gave --

For more information:
frenster: malas_na_spooky@yahoo.com
YM: malas_na_spooky

                         Title: Buy One Take one
                         Artist: Grin Department

Actually this is played also on verse and chorus part

e|---------------------------------------------------------|
B|---------------------------------------------------------|
G|-----------9-77777---------------------------------------|
D|----777777-7-77777--77777--------------------------------|
A|----777777-7-55555--77777--------------------------------|
E|----555555----------55555--------------------------------|

e|-------------------------|4x|------------------|
B|-------------------------|  |------------------|
G|------9--77777-----------|T |------------------|
D|------9--77777-77777777--|H |--77777777--------|
A|------7--55555-77777777--|E |--77777777--------|
E|---------------55555555--|N |--55555555--------|
                     (TULOY TULOY HANGGANG REFRAIN)

 -- gave --
Tap to rate this tab
# A B C D E F G H I J K L M N O P Q R S T U V W X Y Z