Song name
# A B C D E F G H I J K L M N O P Q R S T U V W X Y Z

Grin Department - Miss Miss Sa Loob Ng Jeepney tab

Song:Miss Miss sa Loob ng Jeepney
Artist:Green Department
Date Tabbed:May,2007
Guitar Tabber:Ryan Manongdo/17/m/Montalban Rizal
              no_falter0x@yahoo.com(Friendster&YM)

There's alot of repetitions in this song.Piece of Cake              
For your questions or suggestions,just PM or Text me!!
Please Rate...

Gtr.Legends:
~ - let it ring

Gtr.Tuning:Standard(Normal)

Intro prt.1:
(Pluck)
e|-------2~----2-------------------------------|
B|-6~----2~--2---2----6~----6------4~----4-----|
G|-6~-----------------6~--6---6----5~--5---5---| 2x
D|---------------------------------------------|
A|-4~-----------------4~-----------------------|
E|-------2~------------------------4~----------|

Verse:Minsan,sumakay ako....
Gtr.1
e|-1111--2222--11111----------|
B|-2222--2222--22222--44444---|
G|--------------------55555---|
D|----------------------------|
A|----------------------------|
E|----------------------------|

Gtr.2
e|----------------------2------2------2-------------------------------------------|
B|---6------6-----6-------2------2-----------6------6------------4------4-----4---|
G|-----6------6--------------------------------6------6------------5------5-------|
D|--------------------------------------------------------------------------------|
A|-4------4-----4--------------------------4------4-----4-------------------------|
E|--------------------2------2------2--------------------------4------4------4----|

Chorus:Miss,miss sa loob...
Play Verse

Tingin naman jan
e|-22222-----------|
B|-22222--444444---|
G|--------555555---|
D|-----------------|
A|-----------------|
E|-----------------|

Repeat Verse and Chorus:

Last Chord: 
e|-----------------------------------|
B|---6-----6-----6------6------6~----|
G|-----6-----6-----6------6----------|
D|-----------------------------------|
A|-4-----4-----4------4------4-------|
E|-----------------------------------|


End...


Miss Miss sa Loob ng Jepney Lyrics:

Verse:C#,F#,C#,,G#
minsan sumakay ako ng jeep,
galing ng eskuwela
meron akong nakita sumakay na magandang dalaga 
itong cheek ay sexy talaga at 
sos ang dating 
kaya naisipan kong magpacute at magpapansin	
O anong tuwa ko nang abutin ko ang kanyang bayad
para akong asong ulol baw waw waw 
na nagkakandarapa
halos magkanda-haba haba 
haba haba haba haba 
ang aking kamay sa pag-abot nang kanyang sukli
sabay bigla akong nag hi. hi

Chorus:C#,F#,C#,G#	
miss miss sa loob nang jeepney
sa na naman ako ay bigyang pansin
miss miss sa loob nang jeepney 
sana naman akoy bigyan tingin
F#,G#
(tingin naman diyan)
(tingin naman diyan)

Verse:
isa lang po ang aking problema 	
kung paano ko siya makikilala
eh pumara ang jeep, sumakay si lola 
e puno na pala
kahit di ko gawain, akoy
napilitan lola dito ka na
nang akoy nakasabit na bigla 
ang bulong niya baka ka madisgrasya
akoy na shock sa caring niya 
akoy na shock kasi concern siya
pumalakpak ang aking tenga
plak, plak, plak, ang sabi na aking tenga


Repeat Chorus

Verse
pagdating sa dulo biglang natraffic 
may banggan daw sa kanto
nagkabanggaan ang aming tingin,
nauwi sa mabuting usapin
nagkabanggaan, nagkahabaan 
ang aming usapan
mula kababawan hanggang kalaliman, di ko namalayan
siya pala ay papara na
goodbye goodbye ang sabi niya
goodbye goodbye hangang sa muling pagkikita
goodbye, goodbye, goobye
goodbye, goodbye
nakalimutan kong itanong pangalan niya tirahan niya
nakalinutan kong isulat
phome mumber niya at beeper number niya 
nakalimutan kong sabihin pangalan ko 
at ang bayan ko
nakalimutan ko nakalimutan ko 	
nakalimutan ko pati bayad ko
(repeat chorus except last 2 lines)

Chorus 2:
miss miss sa loob ng jeepney
sana naman akoy kausapin
miss miss sa loob ng jeepney 
pamasahe moy aking aabuti
paano kita hahanapin paano kita hahagilapin
eh hinabol ako ng driver na sisakyan natin
kaya, kaya, kaya, kaya…

C#,F#,C#,G#		        	
nag 1 2 3 ako takbo na.

bayad nimohh
Tap to rate this tab
# A B C D E F G H I J K L M N O P Q R S T U V W X Y Z