Song name
# A B C D E F G H I J K L M N O P Q R S T U V W X Y Z

Grinderman - Go Tell The Women tab

Artist: Grinderman

Go Tell The Women Tab

Standard Tuning

Iíve tabbed both parts (Nick Caveís guitar and Warren Ellisís violin) for guitar. 
 
 Riff 1. 

 e||---3-----5--------------------------------------------------||
 B||------5-----------------------------------------------------||
 G||------------------------------------------------------------|| 
 D||------------------------------------------------------------||
 A||------------------------------------------------------------||
 E||------------------------------------------------------------||

 Riff 2. 

 e||------------------------------------------------------------||
 B||------------------------------------------------------------||
 G||---------------7--9--5-2-2----------------------------------|| 
 D||------------------------------------------------------------||
 A||------------------------------------------------------------||
 E||------------------------------------------------------------||

Alternately:

 e||------------------------------------------------------------||
 B||------------------------------------------------------------||
 G||---------------7--9--5--------------------------------------|| 
 D||------------------------------------------------------------||
 A||------------------------------------------------------------||
 E||------------------------------------------------------------||

Very simple, just repeat as necessary. Listen to the song to figure out when to play each part.
Tap to rate this tab
 
# A B C D E F G H I J K L M N O P Q R S T U V W X Y Z