Song name
# A B C D E F G H I J K L M N O P Q R S T U V W X Y Z

Grinspoon - American Party Bomb tab

Help us improve GuitareTab! Take a short survey!
Artist: Grinspoon
Song: All the time
Album: Easy

Drop D Tuning (low to high: D A D G B E)


Verse

        Play Four Times
|-----|-------------------------------------------|
|-----|-------------------------------------------|
|-----|-------------------------------------------|
|-----|-0-0-6-6-0-0-6-66--3-3-3-3-3-3-3-3-3-3-3-3-|
|-----|-0-0-6-6-0-0-6-66--3-3-3-3-3-3-3-3-3-3-3-3-|
|-10-|-0-0-6-6-0-0-6-66--3-3-3-3-3-3-3-3-3-3-3-3-|
                    p.m   p.m   p.m   p.m 

Pre-Chorus

|----------|
|----------|
|----------|
|-5-56-5-3-|
|-5-56-5-3-|
|-5-56-5-3-|


Chorus

|----------------------------------|
|----------------------------------|
|----------------------------------|
|-0-00-00-8-88-88-3-33-33-5-55-5-3-|
|-0-00-00-8-88-88-3-33-33-5-55-5-3-|
|-0-00-00-8-88-88-3-33-33-5-55-5-3-|


Bridge

|----------------------------------------|
|----------------------------------------|
|----------------------------------------|
|-7-76-3-5--7-76-3-5--7-76-3-5--7-76-5-3-|
|-7-76-3-5--7-76-3-5--7-76-3-5--7-76-5-3-|
|-7-76-3-5--7-76-3-5--7-76-3-5--7-76-5-3-|


Related for American Party Bomb tab