Song name
# A B C D E F G H I J K L M N O P Q R S T U V W X Y Z

Grinspoon - Pigpen tab

Pigpen by Grinspoon

Drop D Tuning (low to high: D A D G B E)

Intro

|----------|
|----------|
|----------|
|----------|
|----------|
|--/16-----|

(play 11 times)
|-----------------|
|-----------------|
|-----------------|
|-----------------|
|-----------------|
|--0-5-0-4-0-3-0--|

|----------------|
|----------------|
|----------------|
|----------------|
|----------------|
|--0-5-0-4-0-3b--|


Verses

|-----------------|
|-----------------|
|-----------------|
|-----------------|
|-----------------|
|--0-5-0-4-0-3-0--|


Chorus

|------------------|
|------------------|
|------------------|
|--5---4--00-00-0--|
|--5---4--00-00-0--|
|--5---4--00-00-0--|
p.m....
(play 3 times)
|-----------------|----------------|
|-----------------|----------------|
|-----------------|----------------|
|-----------------|----------------|
|-----------------|----------------|
|--0-5-0-4-0-3-0--|--0-5-0-4-0-3b--|


|-------------------------------------------|
|-------------------------------------------|
|-------------------------------------------|
|--3-0-1-2-3-0-1-0-3-1-0-3-0-1-2-3-0-1-0-1--|
|--3-0-1-2-3-0-1-0-3-1-0-3-0-1-2-3-0-1-0-1--|
|--3-0-1-2-3-0-1-0-3-1-0-3-0-1-2-3-0-1-0-1--|

|-------|
|-------|
|-------|
|--2-3--|
|--2-3--|
|--2-3--|
Tap to rate this tab
 
# A B C D E F G H I J K L M N O P Q R S T U V W X Y Z