Guitaretab - guitar tabs
Song name
# A B C D E F G H I J K L M N O P Q R S T U V W X Y Z

Grinspoon - Scalped tab

Artist: Grinspoon
Song: Scalped
Album: Guide to better living

Drop D Tuning (low to high: D A D G B E)

Intro

w/dist.
|------------|
|------------|
|------------|
|--2-9-10-9--|
|--2-9-10-9--|
|--2-9-10-9--|


Verses

Gtr. 1 clean
|--------------------------------------|
|--------------------------------------|
|--------------------------------------|
|--2-2-2-2-9-9-9-9-10-10-10-10-9-9-9-9-|
|--2-2-2-2-9-9-9-9-10-10-10-10-9-9-9-9-|
|--2-2-2-2-9-9-9-9-10-10-10-10-9-9-9-9-|
| |
|Gtr. 2 w/Chorus |
|--0-----------------------------------|
|--0-----------------------------------|
|--0-----------------------------------|
|--2-----------------------------------|
|--2-----------------------------------|
|--2-----------------------------------|
[ Tab from: http://www.guitaretab.com/g/grinspoon/101493.html ]
1.,4. Urge those working, with such machinery
To keep their hair tied back
Contained in hair nets or cut short

2. Fit and happy he was healthy at 71kgs
Indoor cricket
Scarring marvel, effect of some drugs

3. Vivid, deadly
Photo, paper
Training for living still giving plastic bag account
So can you work it out?


Chorus

|---------------------------------------------------------------|
|---------------------------------------------------------------|
|---------------------------------------------------------------|
|--14-14-14-14-16-14-12-12-12-12-14-12-10-10-10-10-12-10-9-9-9--|
|--14-14-14-14-16-14-12-12-12-12-14-12-10-10-10-10-12-10-9-9-9--|
|--14-14-14-14-16-14-12-12-12-12-14-12-10-10-10-10-12-10-9-9-9--|


Interlude

|--------------------------|
|--------------------------|
|--------------------------|
|--2-2-2-9-9-9-10-10-10-9--|
|--2-2-2-9-9-9-10-10-10-9--|
|--2-2-2-9-9-9-10-10-10-9--|
	
Related for Scalped tab