Guitaretab - guitar tabs
Song name
# A B C D E F G H I J K L M N O P Q R S T U V W X Y Z

Grinspoon - Sickfest tab

Artist: Grinspoon
Song: Sickfest
Album: Guide to better living

Drop D Tuning (low to high: D A D G B E)

Intro

 (play 12 times)
|----------|---------------------|
|----------|---------------------|
|--Drums---|---------------------|
|--4 bars--|---------------3-----|
|----------|--5p3p0-5p3p0--1--3--|
|----------|------------------3--|


Verse

|--------------------------------------------------------------|
|--------------------------------------------------------------|
|--------------------------------------------------------------|
|-----------------7-5----------------------------7-5-----------|
|--0-0--0--0-3----5-3-3-----------0-0--0--0-3----5-3-3---------|
|--0-0--0--0-3--------3-035653----0-0--0--0-3--------3-035653--|

|--------------------------------------------------------------|
|--------------------------------------------------------------|
|--------------------------------------------------------------|
|--0-0--0--0-3----7-10------------0-0--0--0-3----7-5-----------|
|--0-0--0--0-3----5-8--3----------0-0--0--0-3----5-3-3---------|
|--0-0--0--0-3---------3-035653---0-0--0--0-3--------3-035653--|
w/
1.,3. You can't try and sink your thoughts into my brain
Contradict, youv'e always been too lame
Guilt has always found you hiding away
Wallow in your pity

2. Train your mind to believe all that you say
Stab yourself so he will turn in
Ben and Frank, bliss isn't what you prayed
Don't you ever say what matters 


Chorus
[ Tab from: http://www.guitaretab.com/g/grinspoon/101494.html ]
 (play two times)
|------------------------------------------------|
|------------------------------------------------|
|------------------------------------------------|
|------------------------------------------------|
|--0-0--0-0-3--0-0--0-0-3--5p3p0----------3-4-5--|
|--0-0--0-0-3--0-0--0-0-3--------3-5--3-5--------|
               You make sick          I   make   you            Every time   I see you I break you


Bridge

 (play two times)
|--------------------------------------|
|--------------------------------------|
|--------------------------------------|
|--00-00-0---00-00-0---00-00-0---0--1--|
|--00-00-0---00-00-0---00-00-0---0--1--|
|--00-00-0---00-00-0---00-00-0---0--1--|
    (down)                                                                          Break you
                                                                              Yeah I'm breaking

Solo

 w/Wah Wah
|--------------------------------------|
|--------------------------------------|
|--9---7h9p7--5h7p5--5-4h5p4-2--4b-5--|
|--------------------------------------|
|--------------------------------------|
|--------------------------------------|
   you down

|--12-13-15-13-12h13h12--------------------------------|
|----------------------15-13-12------------------------|
|------------------------------12h14p12--12---------7--|
|--------------------------------------15--15-14-12----|
|------------------------------------------------------|
|------------------------------------------------------|

|---------------------------------------|
|--12b-----12h13-10h13p12h13p12h13-10--|
|--12b--10------------------------------|
|---------------------------------------|
|---------------------------------------|
|---------------------------------------|


Outro

|-------------|
|-------------|
|-------------|
|-------------|
|-0-0--0--0-3-|
|-0-0--0--0-3-|


Related for Sickfest tab