Guitaretab - guitar tabs
Song name
# A B C D E F G H I J K L M N O P Q R S T U V W X Y Z

Grinspoon - Waiting For Take Off tab

Artist: Grinspoon
Song: Waiting For Take Off
Track: 02
CD: Chemical Heart single
Tuning: Dropped D (DADGBe Low to High)


Key:
/= slide up
= slide down
h= hammer on
p= pull-off
x= mute string
.= palm mute
,= slight palm mute
~= Let Ring

Intro/Chorus:
e--------------------|---------------------------|
B--------------------|---------------------------|
G--------------------|---------------------------|
D-6666-5555-33333333-|6666-5555-1010101010101010-|
A-4444-3333-33333333-|4444-3333--8-8-8-8-8-8-8-8-|
D-----------33333333-|---------------------------|

e--------------------|------------------------------|
D--------------------|------------------------------|
G--------------------|------------------------------|
D-6666-5555-33333333-|-88888888---------------------|
A-4444-3333-33333333-|-66666666-2222-4444-5555-4444-|
D-----------33333333-|------------------------------|

Verse:
e-----------------|
B-----------17~---|
G-------------16~-| When you slide the 4 up the fret board slide to 
D-----------------| 14 and just softly pull your finger off!
A-5-4-------------|
D-----4~//--------|
[ Tab from: http://www.guitaretab.com/g/grinspoon/101497.html ]
Verse Pt2:
e-------------|
B------17~----|
G--------16~--| x2
D-------------|
A-------------|
D-------------|

Post Chorus:
e-------------------------------|
B-------------------------------|
G-------------------------------|
D-3-3xx-3-3xx-6-6xx-7-8-6-8-8-7-|
A-3-3xx-3-3xx-6-6xx-7-8-6-8-8-7-|
D-3-3xx-3-3xx-6-6xx-7-8-6-8-8-7-|

Interlude:
e---------|
B---------|
G---------|
D-3-6-7-8-|
A-3-6-7-8-|
D-3-6-7-8-|

e--------------------------------------|
B--------------------------------------|
G--------------------------------------|
D-33333333-33333333-66666666-7777-8888-|
A-33333333-33333333-66666666-7777-8888-|
D-33333333-33333333-66666666-7777-8888-|
pm........ ........ ........ .... ....

e-----------------------------------|
B-----------------------------------|
G-----------------------------------|
D-33333333-33333333-66666666-7777-8-|
A-33333333-33333333-66666666-7777-8-|
D-33333333-33333333-66666666-7777-8-|
pm,,,,,,,, ,,,,,,,, ,,,,,,,,

End:
e-----|
B-----|
G-----|
D-3-3-|
A-3-3-|
D-3-3-|

Song Structure:
Intro
Verse
Chorus
Post Chorus x2
Verse
Chorus
Post Chorus x4
Bridge
Chorus x2
End

Related for Waiting For Take Off tab