Song name
# A B C D E F G H I J K L M N O P Q R S T U V W X Y Z

Grinspoon - Yarni Marni tab

Artist: Grinspoon
Song: Yarni Marni
Album: Easy

Drop D Tuning (low to high: D A D G B E)


Intro

|---------------------------------------------|
|---------------------------------------------|
|---------------------------------------------|
|-6-66-65-0-3-5-0-1-3----6-66-65-0-3-5-0-1-33-|
|-6-66-65-0-3-5-0-1-3----6-66-65-0-3-5-0-1-33-|
|-6-66-65-0-3-5-0-1-3----6-66-65-0-3-5-0-1-33-|


Intro

|-----------------------------------------------|
|-----------------------------------------------|
|-----------------------------------------------|
|-----------------------------------------------|
|-0-1-3----0-1-33-------------------------------|
|-0-1-3----0-1-33-------------------------------|


Chorus

|-------------------------------------------|
|-------------------------------------------|
|-------------------------------------------|
|-5-55-55-55/5-55-55-x-6-66-66-3-3-33-5-5-5-|
|-3-33-33-33/5-55-55-x-6-66-66-3-3-33-5-5-5-|
|--------------------x-6-66-66-3-3-33-5-5-5-|
Tap to rate this tab
 
# A B C D E F G H I J K L M N O P Q R S T U V W X Y Z