Song name
# A B C D E F G H I J K L M N O P Q R S T U V W X Y Z

Grinspoon - Truk tab

Artist: Grinspoon
Song: Truk
Album: Guide to better living

Drop D Tuning (low to high: D A D G B E)

Intro


|------------------------------------------------------------------------|
|------------------------------------------------------------------------|
|------------------------------------------------------------------------|
|-6-0-0-0-0-0-0-0--6-0-0-0-0-0-0-0--6-0-0-0-0-0-6-6--6-0-0-6-6-6-0-0-6-6-|
|-6-0-0-0-0-0-0-0--6-0-0-0-0-0-0-0--6-0-0-0-0-0-6-6--6-0-0-6-6-6-0-0-6-6-|
|-6-0-0-0-0-0-0-0--6-0-0-0-0-0-0-0--6-0-0-0-0-0-6-6--6-0-0-6-6-6-0-0-6-6-|


Chorus

|-----------------------------------------------------|
|-----------------------------------------------------|
|-----------------------------------------------------|
|-0-2-0-2-0-2-0-2-0-2-2-2-2-2-2-2-2-2-2-2-2-2-2-2-2-2-|
|-0-2-0-2-0-2-0-2-0-2-2-2-2-2-2-2-2-2-2-2-2-2-2-2-2-2-|
|-0-2-0-2-0-2-0-2-0-2-2-2-2-2-2-2-2-2-2-2-2-2-2-2-2-2-|

|-----------------------------------------------------------------|
|-----------------------------------------------------------------|
|-----------------------------------------------------------------|
|-14-14-14-14-12-12-12-12-11-11-11-11-10-10-10-10-14-14-9-14-14-9-|
|-14-14-14-14-12-12-12-12-11-11-11-11-10-10-10-10-14-14-9-14-14-9-|
|-14-14-14-14-12-12-12-12-11-11-11-11-10-10-10-10-14-14-9-14-14-9-|

Tap to rate this tab
 
# A B C D E F G H I J K L M N O P Q R S T U V W X Y Z